Oops, an error
Loading. Please wait.

Poppin Champagne bass

version 2
version 2

Whole song

Interactive

1,702 views 1 this week
no commentswrite comment
1 2 3 4 5
3 more votes to show rating
add to favorites
×
Save as Personal and add changes to this tab that will be seen only by you. Learn more ›
×
You can save this tab as Personal to edit and correct it or add notes. All changes will be seen only by you. Learn more »
launch autoscroll
font size
0
reset
guitar tuner
edit
Autoscroll
slow
fast
+/-
esc
set tempo
stop
Difficulty
Standard tune by Jose B.

VERSE 1
G-----------------------------------|
D-----------------------------------|
A-----------------5-5-555-----------|
E-7-7-777-5-5-555---------2-3-3-333-|

G-----------------------------------|
D-----------------------------------|
A-----------------5-5-555-----------|
E-7-7-777-5-5-555---------2-3-3-333-|

PRE-CHORUS
G-------------------------------------|
D-------------------------------------|
A-------------------------------------|
E-22222222-33333333-55555555-66666666-|

CHORUS
G------------------------------------|
D------------------------------------|
A-5555555555555555-------------------|
E------------------22222222-33333333-|

G------------------------------------|
D------------------------------------|
A------------------------------------|
E-77777777-55555555-3333333333333333-|

VERSE 2
G--------------------------------|
D--------------------------------|
A-------------------55555555-----|
E-77777777-55555555----------2-3-|

G----------------------------------------|
D----------------------------------------|
A-------------------55555555-------------|
E-77777777-55555555-----------2-33333333-|

G-----------------------------------|
D-----------------------------------|
A-----------------5-5-5-5-----------|
D-7-7-7-7-5-5-5-5---------2-3-3-3-3-|

PRE-CHORUS
G-------------------------------------|
D-------------------------------------|
A-------------------------------------|
E-22222222-33333333-55555555-66666666-|

CHORUS
G------------------------------------|
D------------------------------------|
A-5555555555555555-------------------|
E------------------22222222-33333333-|

G------------------------------------|
D------------------------------------|
A------------------------------------|
E-77777777-55555555-3333333333333333-|

Play CHORUS again

Then finish CHORUS on

G-----------|
D-----------|
A--5--------|
E-----------| let it ring...

The drums will play its beat for two measures

THEN

Let guitar play BRIDGE once, and then play BRIDGE the second time

BRIDGE
G--------------------------------------|
D--------------------------------------|
A-------------------55555555-----------|
E-22222222-33333333----------55555555--| 

SOLO
G--------------------------------------|
D--------------------------------------|
A----------55555555--------------------|
E-77777777----------55555555-33333333--| X2

SLOW CHORUS
G-------------|
D-------------|
A-5-----------|
E-------2--3--|

G------------------------------------|
D------------------------------------|
A------------------------------------|
E-77777777-55555555-3333333333333333-|

Play CHORUS one more time

Finish on

G-----------|
D-----------|
A--5--------|
E-----------| and let it ring...


Song Progression:

VERSE 1
PRE-CHORUS
CHORUS
VERSE 2
PRE-CHORUS
CHORUS x2
BRIDGE
SOLO x2
SLOW CHORUS
CHORUS

            
            
Suggest correction
Creating personal tab
Creating personal tab
You can edit any tab online and save it as your Personal.

You can edit, replace or remove any tab part or add personal notes – all changes will be seen only by you.

Personal tabs can be accessed anytime from any device, even offline.
Learn more »
Give kudos to tab author, rate the tab!
1 2 3 4 5
comments
print report bad tab
guest
Wanna post a correction for this tab? Suggest correction