Oops, an error
Loading. Please wait.

Poppin Champagne tab

version 2
version 2

Whole song

Interactive

42,548 views 18 this week
6 commentsread comments
1 2 3 4 5
x 22
add to favorites
×
Save as Personal and add changes to this tab that will be seen only by you. Learn more ›
×
You can save this tab as Personal to edit and correct it or add notes. All changes will be seen only by you. Learn more »
launch autoscroll
font size
0
reset
how to read this tab
guitar tuner
edit
Autoscroll
slow
fast
+/-
esc
set tempo
stop
Author
                           Lead Guitar (Jack)

Intro/Verse:
E|-------------------------------------|
B|-10---10---10---10---8---8---7---7---|
G|----7----7----7----7---7---7---7---7-| x4
D|-------------------------------------|
A|-------------------------------------|
D|-------------------------------------|

E|--------------------------------------------------------------------|
B|-7---7---7---7---8---8---8---8---7---7---7---7--10---10---10---10---|
G|---7---7---7---7---7---7---7---7---7---7---7--7----7----7----7----7-|
D|--------------------------------------------------------------------|
A|--------------------------------------------------------------------|
D|--------------------------------------------------------------------

Chorus:
E|-----------------------------------------------|
B|-----------------------------------------------|
G|-11-11-11-11-11-11-11-11-11-11-11-11-11-11-7-7-|
D|-----------------------------------------------|
A|--9--9--9--9--9--9--9--9--9--9--9--9--9--9-5-5-|
D|-----------------------------------------------|

E|-------------------------------------------------|
B|-------------------------------------------------|
G|-11-11-11-11-11-11-11-11-11-11-11-11-11-14-14-14-|
D|-------------------------------------------------|
A|--9--9--9--9--9--9--9--9--9--9--9--9--9-12-12-12-|
D|-------------------------------------------------|

E|-----------------------------------------|
B|-----------------------------------------|
G|-11-11-11-11-11-11-11-11-9-9-9-9-9-6-6-6-|
D|-----------------------------------------|
A|--9--9--9--9--9--9--9--9-7-7-7-7-7-4-4-4-|
D|-----------------------------------------|

E|---------------------------------|-----|
B|---------------------------------|-----|
G|-7-7-7-7-7-7-7-7-7-7-7-7-7-7-7-7-|-11~-|
D|---------------------------------|-----|
A|-5-5-5-5-5-5-5-5-5-5-5-5-5-5-5-5-|--9~-|
D|---------------------------------|-----|

Verse:
E|-------------------------------------|
B|-10---10---10---10---8---8---7---7---|
G|----7----7----7----7---7---7---7---7-| x2
D|-------------------------------------|
A|-------------------------------------|
D|-------------------------------------|

E|--------12-10-9--------12-14----------------------------|
B|-10-8-7---------10-8-7-------7---7---8---8---7---7---10-|
G|-------------------------------7---7---7---7---7---7----|
D|--------------------------------------------------------|
A|--------------------------------------------------------|
D|--------------------------------------------------------|

Chorus:
E|-----------------------------------------------|
B|-----------------------------------------------|
G|-11-11-11-11-11-11-11-11-11-11-11-11-11-11-7-7-|
D|-----------------------------------------------|
A|--9--9--9--9--9--9--9--9--9--9--9--9--9--9-5-5-|
D|-----------------------------------------------|

E|-------------------------------------------------|
B|-------------------------------------------------|
G|-11-11-11-11-11-11-11-11-11-11-11-11-11-14-14-14-|
D|-------------------------------------------------|
A|--9--9--9--9--9--9--9--9--9--9--9--9--9-12-12-12-|
D|-------------------------------------------------|

E|-----------------------------------------|
B|-----------------------------------------|
G|-11-11-11-11-11-11-11-11-9-9-9-9-9-6-6-6-|
D|-----------------------------------------|
A|--9--9--9--9--9--9--9--9-7-7-7-7-7-4-4-4-|
D|-----------------------------------------|

E|---------------------------------|
B|---------------------------------|
G|-7-7-7-7-7-7-7-7-7-7-7-7-7-7-7-7-|
D|---------------------------------|
A|-5-5-5-5-5-5-5-5-5-5-5-5-5-5-5-5-|
D|---------------------------------|

E|-----------------------------------------------|
B|-----------------------------------------------|
G|-11-11-11-11-11-11-11-11-11-11-11-11-11-11-7-7-|
D|-----------------------------------------------|
A|--9--9--9--9--9--9--9--9--9--9--9--9--9--9-5-5-|
D|-----------------------------------------------|

E|-------------------------------------------------|
B|-------------------------------------------------|
G|-11-11-11-11-11-11-11-11-11-11-11-11-11-14-14-14-|
D|-------------------------------------------------|
A|--9--9--9--9--9--9--9--9--9--9--9--9--9-12-12-12-|
D|-------------------------------------------------|

E|-----------------------------------------|
B|-----------------------------------------|
G|-11-11-11-11-11-11-11-11-9-9-9-9-9-6-6-6-|
D|-----------------------------------------|
A|--9--9--9--9--9--9--9--9-7-7-7-7-7-4-4-4-|
D|-----------------------------------------|

E|---------------------------------|-----|
B|---------------------------------|-----|
G|-7-7-7-7-7-7-7-7-7-7-7-7-7-7-7-7-|-11~-|
D|---------------------------------|-----|
A|-5-5-5-5-5-5-5-5-5-5-5-5-5-5-5-5-|--9~-|
D|---------------------------------|-----|

Bridge:
E|                        |
B|                        |
G| rest, prepare for solo |
D|                        |
A|                        |
D|                        |

Solo: (these are all 16th notes)
E|---------------------------------------------------------------------------------------------|
B|---------------------------------------------------------------------------------------------|
G|-11-11-11-11-11-11-11-11-11-11-11-11-14-14-14-14-12-12-12-12-12-12-11-11-11-11-11-11-9-9-9-9-|
D|---------------------------------------------------------------------------------------------|
A|--9--9--9--9--9--9--9--9--9--9--9--9-12-12-12-12-10-10-10-10-10-10--9--9--9--9--9--9-7-7-7-7-|
D|---------------------------------------------------------------------------------------------|

E|---------------------------------------------------------------------------|
B|---------------------------------------------------------------------------|
G|-7-7-7-7-7-7-14-14-14-14-14-14-7-7-7-7-7-7-7-7-7-7-14-14-14-14-7-7-7-7-7-7-|
D|---------------------------------------------------------------------------|
A|-5-5-5-5-5-5-12-12-12-12-12-12-5-5-5-5-5-5-5-5-5-5-12-12-12-12-5-5-5-5-5-5-|
D|---------------------------------------------------------------------------|

E|---------------------------------------------------------------------------------------------|
B|---------------------------------------------------------------------------------------------|
G|-11-11-11-11-11-11-11-11-11-11-11-11-14-14-14-14-12-12-12-12-12-12-11-11-11-11-11-11-9-9-9-9-|
D|---------------------------------------------------------------------------------------------|
A|--9--9--9--9--9--9--9--9--9--9--9--9-12-12-12-12-10-10-10-10-10-10--9--9--9--9--9--9-7-7-7-7-|
D|---------------------------------------------------------------------------------------------|

E|---------------------------------------------------------------------------|-----|
B|---------------------------------------------------------------------------|-----|
G|-7-7-7-7-7-7-14-14-14-14-14-14-7-7-7-7-7-7-7-7-7-7-14-14-14-14-7-7-7-7-7-7-|-11~-|
D|---------------------------------------------------------------------------|-----|
A|-5-5-5-5-5-5-12-12-12-12-12-12-5-5-5-5-5-5-5-5-5-5-12-12-12-12-5-5-5-5-5-5-|--9~-|
D|---------------------------------------------------------------------------|-----|

Chorus:
E|-----------------------------------------|
B|-----------------------------------------|
G|-11-11-11-11-11-11-11-11-9-9-9-9-9-6-6-6-|
D|-----------------------------------------|
A|--9--9--9--9--9--9--9--9-7-7-7-7-7-4-4-4-|
D|-----------------------------------------|

E|---------------------------------|
B|---------------------------------|
G|-7-7-7-7-7-7-7-7-7-7-7-7-7-7-7-7-|
D|---------------------------------|
A|-5-5-5-5-5-5-5-5-5-5-5-5-5-5-5-5-|
D|---------------------------------|

E|-----------------------------------------------|
B|-----------------------------------------------|
G|-11-11-11-11-11-11-11-11-11-11-11-11-11-11-7-7-|
D|-----------------------------------------------|
A|--9--9--9--9--9--9--9--9--9--9--9--9--9--9-5-5-|
D|-----------------------------------------------|

E|-------------------------------------------------|
B|-------------------------------------------------|
G|-11-11-11-11-11-11-11-11-11-11-11-11-11-14-14-14-|
D|-------------------------------------------------|
A|--9--9--9--9--9--9--9--9--9--9--9--9--9-12-12-12-|
D|-------------------------------------------------|

E|-----------------------------------------|
B|-----------------------------------------|
G|-11-11-11-11-11-11-11-11-9-9-9-9-9-6-6-6-|
D|-----------------------------------------|
A|--9--9--9--9--9--9--9--9-7-7-7-7-7-4-4-4-|
D|-----------------------------------------|

E|---------------------------------|-----|
B|---------------------------------|-----|
G|-7-7-7-7-7-7-7-7-7-7-7-7-7-7-7-7-|-11~-|
D|---------------------------------|-----|
A|-5-5-5-5-5-5-5-5-5-5-5-5-5-5-5-5-|--9~-|
D|---------------------------------|-----|


                           Rhythm Guitar (Alex)

Intro: This parts only for the video remix, not for recorded song
E|-----------------------------------------------------------------|
B|-----------------------------------------------------------------|
G|-----------------------------------------------------------------|
D|-----------------------------------------------------------------|
A|-----------------------------------------------------------------|
D|-9-9-9-9-9-9-9-9-9-9-9-9-9-9-9-9-7-7-7-7-7-7-7-7-7-7-7-7-7-7-7-7-|
Pm.................................................................    x2

E|-----------------------------------------------------------------|
B|-----------------------------------------------------------------|
G|-----------------------------------------------------------------|
D|-----------------------------------------------------------------|
A|-----------------------------------------------------------------|
D|-0-0-0-0-0-0-0-0-0-0-0-0-0-0-0-0-7-7-7-7-7-7-7-7-7-7-7-7-7-7-7-7-|
Pm.................................................................

E|-----------------------------------------------------------------|
B|-----------------------------------------------------------------|
G|-----------------------------------------------------------------|
D|-4-4-4-4-4-4-4-4-5-5-5-5-5-5-5-5-7-7-7-7-7-7-7-7-8-8-8-8-8-8-8-8-|
A|-4-4-4-4-4-4-4-4-5-5-5-5-5-5-5-5-7-7-7-7-7-7-7-7-8-8-8-8-8-8-8-8-|
D|-4-4-4-4-4-4-4-4-5-5-5-5-5-5-5-5-7-7-7-7-7-7-7-7-8-8-8-8-8-8-8-8-|
PM........................................................

Chorus:
E|-----------------------------------------------------------------|
B|-----------------------------------------------------------------|
G|-----------------------------------------------------------------|
D|-4-4-4-4-4-4-4-4-4-4-4-4-4-4-4-4-4-4-4-4-4-4-4-4-5-5-5-5-5-5-5-5-|
A|-0-0-0-0-0-0-0-0-0-0-0-0-0-0-0-0-4-4-4-4-4-4-4-4-5-5-5-5-5-5-5-5-|
D|-0-0-0-0-0-0-0-0-0-0-0-0-0-0-0-0-4-4-4-4-4-4-4-4-5-5-5-5-5-5-5-5-|

E|-----------------------------------------------------------------|
B|-----------------------------------------------------------------|
G|-----------------------------------------------------------------|
D|-9-9-9-9-9-9-9-9-7-7-7-7-7-7-7-7-5-5-5-5-5-5-5-5-5-5-5-5-5-5-5-5-|
A|-9-9-9-9-9-9-9-9-7-7-7-7-7-7-7-7-5-5-5-5-5-5-5-5-5-5-5-5-5-5-5-5-|
D|-9-9-9-9-9-9-9-9-7-7-7-7-7-7-7-7-5-5-5-5-5-5-5-5-5-5-5-5-5-5-5-5-|

Verse:
E|-----------------------------------------------------------------|
B|-----------------------------------------------------------------|
G|-----------------------------------------------------------------|
D|-----------------------------------------------------------------|
A|-----------------------------------------------------------------|
D|-9-9-9-9-9-9-9-9-9-9-9-9-9-9-9-9-7-7-7-7-7-7-7-7-7-7-7-7-7-7-7-7-|
Pm.................................................................

E|-------------------------------------|
B|-------------------------------------|
G|-------------------------------------|
D|---------------------------------4-5-|
A|---------------------------------4-5-|
D|-0-0-0-0-0-0-0-0-0-0-0-0-0-0-0-0-4-5-|
Pm................................

E|-----------------------------------------------------------------|
B|-----------------------------------------------------------------|
G|-----------------------------------------------------------------|
D|-----------------------------------------------------------------|
A|-----------------------------------------------------------------|
D|-9-9-9-9-9-9-9-9-9-9-9-9-9-9-9-9-7-7-7-7-7-7-7-7-7-7-7-7-7-7-7-7-|
Pm.................................................................

E|-----------------------------------------------------------------|
B|-----------------------------------------------------------------|
G|-----------------------------------------------------------------|
D|-----------------------------------------------------------------|
A|-----------------------------------------------------------------|
D|-0-0-0-0-0-0-0-0-0-0-0-0-0-0-4-4-5-5-5-5-5-5-5-5-5-5-5-5-5-5-5-5-|
Pm.................................................................

E|---------------------------------------------------------|
B|---------------------------------------------------------|
G|---------------------------------------------------------|
D|-9--9--9-9-9-9-7--7--7-7-7-7-0--0--0-0-0-4-5--5--5-5-5-5-|
A|-9--9--9-9-9-9-7--7--7-7-7-7-0--0--0-0-0-4-5--5--5-5-5-5-|
D|-9--9--9-9-9-9-7--7--7-7-7-7-0--0--0-0-0-4-5--5--5-5-5-5-|

E|-------------|
B|-------------|
G|-------------|
D|-4~-5~-7~-8/-|
A|-4~-5~-7~-8/-|
D|-4~-5~-7~-8/-|

Chorus:
E|-----------------------------------------------------------------|
B|-----------------------------------------------------------------|
G|-----------------------------------------------------------------|
D|-4-4-4-4-4-4-4-4-4-4-4-4-4-4-4-4-4-4-4-4-4-4-4-4-5-5-5-5-5-5-5-5-|
A|-0-0-0-0-0-0-0-0-0-0-0-0-0-0-0-0-4-4-4-4-4-4-4-4-5-5-5-5-5-5-5-5-|
D|-0-0-0-0-0-0-0-0-0-0-0-0-0-0-0-0-4-4-4-4-4-4-4-4-5-5-5-5-5-5-5-5-|

E|-----------------------------------------------------------------|
B|-----------------------------------------------------------------|
G|-----------------------------------------------------------------|
D|-9-9-9-9-9-9-9-9-7-7-7-7-7-7-7-7-5-5-5-5-5-5-5-5-5-5-5-5-5-5-5-5-|
A|-9-9-9-9-9-9-9-9-7-7-7-7-7-7-7-7-5-5-5-5-5-5-5-5-5-5-5-5-5-5-5-5-|
D|-9-9-9-9-9-9-9-9-7-7-7-7-7-7-7-7-5-5-5-5-5-5-5-5-5-5-5-5-5-5-5-5-|

E|-----------------------------------------------------------------|
B|-----------------------------------------------------------------|
G|-----------------------------------------------------------------|
D|-4-4-4-4-4-4-4-4-4-4-4-4-4-4-4-4-4-4-4-4-4-4-4-4-5-5-5-5-5-5-5-5-|
A|-0-0-0-0-0-0-0-0-0-0-0-0-0-0-0-0-4-4-4-4-4-4-4-4-5-5-5-5-5-5-5-5-|
D|-0-0-0-0-0-0-0-0-0-0-0-0-0-0-0-0-4-4-4-4-4-4-4-4-5-5-5-5-5-5-5-5-|

E|--------------------------------------------------------------------|
B|--------------------------------------------------------------------|
G|--------------------------------------------------------------------|
D|-9-9-9-9-9-9-9-9-7-7-7-7-7-7-7-7-5-5-5-5-5-5-5-5-5-5-5-5-5-5-5-5-0~-|
A|-9-9-9-9-9-9-9-9-7-7-7-7-7-7-7-7-5-5-5-5-5-5-5-5-5-5-5-5-5-5-5-5-0~-|
D|-9-9-9-9-9-9-9-9-7-7-7-7-7-7-7-7-5-5-5-5-5-5-5-5-5-5-5-5-5-5-5-5-0~-|

Bridge:
E|-----------------------------------------------------------------|
B|-----------------------------------------------------------------|
G|-----------------------------------------------------------------|
D|-----------------------------------------------------------------|
A|-----------------------------------------------------------------|
D|-4-4-4-4-4-4-4-4-4-4-4-4-4-4-4-4-5-5-5-5-5-5-5-5-5-5-5-5-5-5-5-5-|
Pm.................................................................

E|-----------------------------------------------------------------|
B|-----------------------------------------------------------------|
G|-----------------------------------------------------------------|
D|-----------------------------------------------------------------|
A|-----------------------------------------------------------------|
D|-0-0-0-0-0-0-0-0-0-0-0-0-0-0-0-0-7-7-7-7-7-7-7-7-7-7-7-7-7-7-7-7-|
Pm.................................................................

Solo:
E|-----------------------------------------------------------------|
B|-----------------------------------------------------------------|
G|-----------------------------------------------------------------|
D|-9-9-9-9-9-9-9-9-9-9-9-9-9-9-9-9-0-0-0-0-0-0-0-0-0-0-0-0-0-0-0-0-|
A|-9-9-9-9-9-9-9-9-9-9-9-9-9-9-9-9-0-0-0-0-0-0-0-0-0-0-0-0-0-0-0-0-|
D|-9-9-9-9-9-9-9-9-9-9-9-9-9-9-9-9-0-0-0-0-0-0-0-0-0-0-0-0-0-0-0-0-|
      
E|-----------------------------------------------------------------|
B|-----------------------------------------------------------------|
G|-----------------------------------------------------------------|
D|-7-7-7-7-7-7-7-7-7-7-7-7-7-7-7-7-5-5-5-5-5-5-5-5-5-5-5-5-5-5-5-5-|
A|-7-7-7-7-7-7-7-7-7-7-7-7-7-7-7-7-5-5-5-5-5-5-5-5-5-5-5-5-5-5-5-5-|
D|-7-7-7-7-7-7-7-7-7-7-7-7-7-7-7-7-5-5-5-5-5-5-5-5-5-5-5-5-5-5-5-5-|

E|-----------------------------------------------------------------|
B|-----------------------------------------------------------------|
G|-----------------------------------------------------------------|
D|-9-9-9-9-9-9-9-9-9-9-9-9-9-9-9-9-0-0-0-0-0-0-0-0-0-0-0-0-0-0-0-0-|
A|-9-9-9-9-9-9-9-9-9-9-9-9-9-9-9-9-0-0-0-0-0-0-0-0-0-0-0-0-0-0-0-0-|
D|-9-9-9-9-9-9-9-9-9-9-9-9-9-9-9-9-0-0-0-0-0-0-0-0-0-0-0-0-0-0-0-0-|
      
E|-----------------------------------------------------------------|
B|-----------------------------------------------------------------|
G|-----------------------------------------------------------------|
D|-7-7-7-7-7-7-7-7-7-7-7-7-7-7-7-7-5-5-5-5-5-5-5-5-5-5-5-5-5-5-5-5-|
A|-7-7-7-7-7-7-7-7-7-7-7-7-7-7-7-7-5-5-5-5-5-5-5-5-5-5-5-5-5-5-5-5-|
D|-7-7-7-7-7-7-7-7-7-7-7-7-7-7-7-7-5-5-5-5-5-5-5-5-5-5-5-5-5-5-5-5-|

E|----------|
B|----------|
G|----------|
D|-4~-4~-5~-|
A|-0~-4~-5~-|
D|-0~-4~-5~-|

Chorus:
E|---------------------------------------------------------|
B|---------------------------------------------------------|
G|---------------------------------------------------------|
D|-9-9-9-9-9-9-9-9-7-7-7-7-7-7-7-7-5-5-5-5-5-5-5-5-5-5-5-5-|
A|-9-9-9-9-9-9-9-9-7-7-7-7-7-7-7-7-5-5-5-5-5-5-5-5-5-5-5-5-|
D|-9-9-9-9-9-9-9-9-7-7-7-7-7-7-7-7-5-5-5-5-5-5-5-5-5-5-5-5-|

E|-----------------------------------------------------------------|
B|-----------------------------------------------------------------|
G|-----------------------------------------------------------------|
D|-4-4-4-4-4-4-4-4-4-4-4-4-4-4-4-4-4-4-4-4-4-4-4-4-5-5-5-5-5-5-5-5-|
A|-0-0-0-0-0-0-0-0-0-0-0-0-0-0-0-0-4-4-4-4-4-4-4-4-5-5-5-5-5-5-5-5-|
D|-0-0-0-0-0-0-0-0-0-0-0-0-0-0-0-0-4-4-4-4-4-4-4-4-5-5-5-5-5-5-5-5-|

E|--------------------------------------------------------------------|
B|--------------------------------------------------------------------|
G|--------------------------------------------------------------------|
D|-9-9-9-9-9-9-9-9-7-7-7-7-7-7-7-7-5-5-5-5-5-5-5-5-5-5-5-5-5-5-5-5-0~-|
A|-9-9-9-9-9-9-9-9-7-7-7-7-7-7-7-7-5-5-5-5-5-5-5-5-5-5-5-5-5-5-5-5-0~-|
D|-9-9-9-9-9-9-9-9-7-7-7-7-7-7-7-7-5-5-5-5-5-5-5-5-5-5-5-5-5-5-5-5-0~-|

            
            
Suggest correction
Creating personal tab
Creating personal tab
You can edit any tab online and save it as your Personal.

You can edit, replace or remove any tab part or add personal notes – all changes will be seen only by you.

Personal tabs can be accessed anytime from any device, even offline.
Learn more »
comments
print report bad tab
6 comments total. Showing first comments.
0 reply
xKnifekillerx 393 Mar 14, 2009 01:50 PM

great tab, i played this last month, but forgot to post a comment, spot on =]]

0 reply
Aurigo 1,082 Mar 14, 2009 02:47 PM

haha cheers :)

0 reply
Sam Rulez D00d 948 Apr 22, 2009 12:50 PM

nice tab, aurigo.

guest
You may want to rate the tab now too:
select rating
Wanna post a correction for this tab? Suggest correction