Oops, an error
Loading. Please wait.

Running From Lions tab

version 1
version 1

Whole song

Interactive

81,750 views 12 this week
7 commentsread comments
1 2 3 4 5
x 30
add to favorites
×
Save as Personal and add changes to this tab that will be seen only by you. Learn more ›
×
You can save this tab as Personal to edit and correct it or add notes. All changes will be seen only by you. Learn more »
launch autoscroll
font size
0
reset
how to read this tab
guitar tuner
edit
Autoscroll
slow
fast
+/-
esc
set tempo
stop
Author
Difficulty
intermediate
Tuning: Standard

[Intro]
e|-0-0-0-0-0--x-x-x-x--0-0-0--0-0-0----------------------------------------|
B|-0-0-0-0-0--x-x-x-x--0-0-0--0-0-0----------------------------------------|
G|-6-6-6-6-6--x-x-x-x--2-2-2--4-4-4----x4----------------------------------|
D|-6-6-6-6-6--x-x-x-x--2-2-2--4-4-4----------------------------------------|
A|-4-4-4-4-4--x-x-x-x--0-0-0--2-2-2----------------------------------------|
E|---------------------0-0-0-----------------------------------------------|

e|-0000000000000000--0000000000000000--0000000000000000--00000000--00000000|
B|-0000000000000000--0000000000000000--0000000000000000--00000000--00000000|
G|-6666666666666666--2222222222222222--4444444444444444--99999999--88888888|
D|-6666666666666666--2222222222222222--4444444444444444--99999999--99999999|
A|-4444444444444444--0000000000000000--2222222222222222--77777777--66666666|
E|-------------------0000000000000000--------------------00000000--00000000|

e|-0000000000000000--0000000000000000--0000000000000000--00000000--00000000|
B|-0000000000000000--0000000000000000--0000000000000000--00000000--00000000|
G|-6666666666666666--2222222222222222--4444444444444444--99999999--88888888|
D|-6666666666666666--2222222222222222--4444444444444444--99999999--99999999|
A|-4444444444444444--0000000000000000--2222222222222222--77777777--66666666|
E|-------------------0000000000000000--------------------00000000--00000000|

[Verse]
e|-0-0-0-0-0--x-x-x-x--0-0-0--0-0-0----------------------------------------|
B|-0-0-0-0-0--x-x-x-x--0-0-0--0-0-0----------------------------------------|
G|-6-6-6-6-6--x-x-x-x--2-2-2--4-4-4----x2----------------------------------|
D|-6-6-6-6-6--x-x-x-x--2-2-2--4-4-4----------------------------------------|
A|-4-4-4-4-4--x-x-x-x--0-0-0--2-2-2----------------------------------------|
E|---------------------0-0-0-----------------------------------------------|

e|-0-0-0-0-0--x-x-x-x--0-0-0--0-0-0----------------------------------------|
B|-0-0-0-0-0--x-x-x-x--0-0-0--0-0-0----------------------------------------|
G|-2-2-2-2-2--x-x-x-x--2-2-2--4-4-4----x2----------------------------------|
D|-2-2-2-2-2--x-x-x-x--2-2-2--4-4-4----------------------------------------|
A|-0-0-0-0-0--x-x-x-x--0-0-0--2-2-2----------------------------------------|
E|-0-0-0-0-0-----------0-0-0-----------------------------------------------|

e|-0-0-0-0-0--x-x-x-x--0-0-0--0-0-0----------------------------------------|
B|-0-0-0-0-0--x-x-x-x--0-0-0--0-0-0----------------------------------------|
G|-6-6-6-6-6--x-x-x-x--2-2-2--4-4-4----x2----------------------------------|
D|-6-6-6-6-6--x-x-x-x--2-2-2--4-4-4----------------------------------------|
A|-4-4-4-4-4--x-x-x-x--0-0-0--2-2-2----------------------------------------|
E|---------------------0-0-0-----------------------------------------------|

e|-0-0-0-0-0--x-x-x-x--0-0-0--0-0-0----------------------------------------|
B|-0-0-0-0-0--x-x-x-x--0-0-0--0-0-0----------------------------------------|
G|-2-2-2-2-2--x-x-x-x--2-2-2--4-4-4----x2----------------------------------|
D|-2-2-2-2-2--x-x-x-x--2-2-2--4-4-4----------------------------------------|
A|-0-0-0-0-0--x-x-x-x--0-0-0--2-2-2----------------------------------------|
E|-0-0-0-0-0-----------0-0-0-----------------------------------------------|

[Chorus]
e|-0-00000000000000--0-00000000000000--0-00000000000000--0-00000000000000--|
B|-0-00000000000000--0-00000000000000--0-00000000000000--0-00000000000000--|
G|-1-11111111111111--6-66666666666666--2-22222222222222--4-44444444444444--|
D|-2-22222222222222--6-66666666666666--2-22222222222222--4-44444444444444--|
A|-2-22222222222222--4-44444444444444--0-00000000000000--2-22222222222222--|
E|-0-00000000000000--------------------0-00000000000000--------------------|

e|-0-00000000000000--0-00000000000000--0-00000000000000--0~--0--0----------|
B|-0-00000000000000--0-00000000000000--0-00000000000000--0~--0-0-0-0-0-----|
G|-1-11111111111111--6-66666666666666--2-22222222222222--4~--2--2---2------|
D|-2-22222222222222--6-66666666666666--2-22222222222222--4~--2~------------|
A|-2-22222222222222--4-44444444444444--0-00000000000000--2~--0~------------|
E|-0-00000000000000--------------------0-00000000000000--------------------|

[Verse]
e|-0-0-0-0-0--x-x-x-x--0-0-0--0-0-0----------------------------------------|
B|-0-0-0-0-0--x-x-x-x--0-0-0--0-0-0----------------------------------------|
G|-6-6-6-6-6--x-x-x-x--2-2-2--4-4-4----x2----------------------------------|
D|-6-6-6-6-6--x-x-x-x--2-2-2--4-4-4----------------------------------------|
A|-4-4-4-4-4--x-x-x-x--0-0-0--2-2-2----------------------------------------|
E|---------------------0-0-0-----------------------------------------------|

e|-0-0-0-0-0--x-x-x-x--0-0-0--0-0-0----------------------------------------|
B|-0-0-0-0-0--x-x-x-x--0-0-0--0-0-0----------------------------------------|
G|-2-2-2-2-2--x-x-x-x--2-2-2--4-4-4----x2----------------------------------|
D|-2-2-2-2-2--x-x-x-x--2-2-2--4-4-4----------------------------------------|
A|-0-0-0-0-0--x-x-x-x--0-0-0--2-2-2----------------------------------------|
E|-0-0-0-0-0-----------0-0-0-----------------------------------------------|

e|-0-0-0-0-0--x-x-x-x--0-0-0--0-0-0----------------------------------------|
B|-0-0-0-0-0--x-x-x-x--0-0-0--0-0-0----------------------------------------|
G|-6-6-6-6-6--x-x-x-x--2-2-2--4-4-4----x2----------------------------------|
D|-6-6-6-6-6--x-x-x-x--2-2-2--4-4-4----------------------------------------|
A|-4-4-4-4-4--x-x-x-x--0-0-0--2-2-2----------------------------------------|
E|---------------------0-0-0-----------------------------------------------|

[Bridge]
e|-------------------------------------------------------------------------|
B|-------------------------------------------------------------------------|
G|---9---9----9----9---9---9----9----9-------------------------------------|
D|--9-9-9-9--9-9--9-9-9-9-9-9--9-9--9-9---x7-------------------------------|
A|-7---7-------------------------------------------------------------------|
E|---------11---11---9---9---11---11---------------------------------------|

[Chorus]
e|-0-00000000000000--0-00000000000000--0-00000000000000--0-00000000000000--|
B|-0-00000000000000--0-00000000000000--0-00000000000000--0-00000000000000--|
G|-1-11111111111111--6-66666666666666--2-22222222222222--4-44444444444444--|
D|-2-22222222222222--6-66666666666666--2-22222222222222--4-44444444444444--|
A|-2-22222222222222--4-44444444444444--0-00000000000000--2-22222222222222--|
E|-0-00000000000000--------------------0-00000000000000--------------------|

e|-0-00000000000000--0-00000000000000--0-00000000000000--00000000--00000000|
B|-0-00000000000000--0-00000000000000--0-00000000000000--00000000--00000000|
G|-1-11111111111111--6-66666666666666--2-22222222222222--44444444--22222222|
D|-2-22222222222222--6-66666666666666--2-22222222222222--44444444--22222222|
A|-2-22222222222222--4-44444444444444--0-00000000000000--22222222--00000000|
E|-0-00000000000000--------------------0-00000000000000--------------------|

e|-000000000--00000000--0~-------------------------------------------------|
B|-000000000--00000000--0~-------------------------------------------------|
G|-444444444--22222222--1~-------------------------------------------------|
D|-444444444--22222222--2~-------------------------------------------------|
A|-222222222--00000000--2~-------------------------------------------------|
E|------------00000000--0~-------------------------------------------------|


************************************

| x  Dead note
| ~  Vibrato

************************************

            
            
Suggest correction
Creating personal tab
Creating personal tab
You can edit any tab online and save it as your Personal.

You can edit, replace or remove any tab part or add personal notes – all changes will be seen only by you.

Personal tabs can be accessed anytime from any device, even offline.
Learn more »
There is a new version of this tab from 3 days ago which you may like more. Go check it out:
comments
print report bad tab
7 comments total. Showing first comments.
0 reply
glazeglaze 116 Dec 15, 2006 12:57 PM

chorus is wrong

0 reply
dannyguitar 10 Sep 21, 2008 04:48 PM

i think the chorus is fine

+1 reply
personz90 10 Nov 22, 2008 10:08 AM

thank you! actually sounds right and its the acoustic one I was looking for! 5/5*

guest
You may want to rate the tab now too:
select rating
Wanna post a correction for this tab? Suggest correction