Oops, an error
Loading. Please wait.

Running From Lions tab

version 2
version 2

Interactive

13,644 views 3 this week
2 commentsread comments
1 2 3 4 5
x 4
add to favorites
×
Save as Personal and add changes to this tab that will be seen only by you. Learn more ›
×
You can save this tab as Personal to edit and correct it or add notes. All changes will be seen only by you. Learn more »
launch autoscroll
font size
0
reset
how to read this tab
guitar tuner
edit
Autoscroll
slow
fast
+/-
esc
set tempo
stop
Difficulty
Intro:

first/main guitar:

e|--------------------------|
B|--------------------------|
G|--66666--X-X--------------|
D|--66666--X-X---777--999---|
A|--44444--X-X --777--999---|
E|---------X-X---555--777---|

2nd guitar - i cant figure out the first part ... but the last times it does this

2nd Guitar:

e|------------|
B|-12-9-10--9-|
G|--------11--|
D|------------|
A|------------|
E|------------|


verse:

e|--------------------------|     |---------------------------|
B|--------------------------|     |---------------------------|
G|--66666--X-X--------------|     |--22222--X-X---------------|
D|--66666--X-X---777--999---| X2  |--22222--X-X---777--999----|  X2
A|--44444--X-X --777--999---|     |--00000--X-X---777--999----|
E|---------X-X---555--777---|     |---------X-X---555--777----|


Chorus:

e|-------------------------------------|
B|-------------------------------------|
G|--999----666-------------------------|
D|--999-X4-666-X4-999----777-----------|
A|--777----444----999-X4-777-----------|
E|----------------777----555-----------|

Struming :

i put times four in there b/c thats how i strum it - the three chords four times each 
but yea its pretty easy

Interlude:

uhhh i dont know the first/main guitar riff yet ... i'll work on it and send it when i 
it out ... but it sounds like picking on the E chord --X799XX-- some where around there

but the 2nd guitar is pretty much the same as in the begging ...
just slower

2nd Guitar:

e|--------------------------------------------------|
B|-12-----9-----10----------9-----------------------|
G|--------------------11----------9------11------8--|
D|--------------------------------------------------|
A|--------------------------------------------------|
E|--------------------------------------------------|

            
            
Suggest correction
Creating personal tab
Creating personal tab
You can edit any tab online and save it as your Personal.

You can edit, replace or remove any tab part or add personal notes – all changes will be seen only by you.

Personal tabs can be accessed anytime from any device, even offline.
Learn more »
comments
print report bad tab
2 comments total.
0 reply
blankguitar910 46 Dec 23, 2006 10:30 AM

you missed some stuff

0 reply
jujufruits34 10 May 19, 2009 04:10 PM

Ahhmazing song.
you did well, son.
i like it.

guest
Wanna post a correction for this tab? Suggest correction