Oops, an error
Loading. Please wait.

Running From Lions tab

version 3
version 3

Interactive

14,646 views 1 this week
4 commentsread comments
1 2 3 4 5
x 8
add to favorites
×
Save as Personal and add changes to this tab that will be seen only by you. Learn more ›
×
You can save this tab as Personal to edit and correct it or add notes. All changes will be seen only by you. Learn more »
launch autoscroll
font size
0
reset
how to read this tab
guitar tuner
edit
Autoscroll
slow
fast
+/-
esc
set tempo
stop
Author
Difficulty
-------------------------------------------------------------------------------
                             Running From Lions - All Time Low
-------------------------------------------------------------------------------

Tuning: Standard

Intro 1
e|--------------------|
B|--------------------|
G|-666-7-XX-----------|
D|-666-7-XX-777-9999--| x4
A|-444-5-XX-777-9999--|
E|----------555-7777--|

Intro 2
e|--------------------|
B|-9-9-11-11----------|
G|----------9-9-11-11-| x4
D|--------------------|
A|--------------------|
E|--------------------|

Intro 3
e|------------|
B|-12-9-10--9-|
G|--------11--| x4
D|------------|
A|------------|
E|------------|

Verse
e|--------------------------------------------------------------------------------------|
B|--------------------------------------------------------------------------------------|
G|-6-----666-666-6-666666666666-6-6-666666666666-6-6-666666666666-6-6-666666666666--6/7-|
D|-6-----666-666-6-666666666666-6-6-666666666666-6-6-666666666666-6-6-666666666666--6/7-|
A|-4-----444-444-4-444444444444-4-4-444444444444-4-4-444444444444-4-4-444444444444--4/5-|
E|--------------------------------------------------------------------------------------|
         ... ...   ............     ............     ............     .......

LAST PART OF VERSE
e|----------------------------------------------------------------------------------|
B|----------------------------------------------------------------------------------|
G|-777-7----------------------------------------------------------------------------|
D|-777-7----------------------------------------------------------------------------|
A|-555-5----------------------------------------------------------------------------|
E|----------------------------------------------------------------------------------|
   ...

CHORUS
e|-------------------------------------------------------|
B|-------------------------------------------------------|
G|-999999999999-666666666666-444444444444-222222-444444--|
D|-999999999999-666666666666-444444444444-222222-444444--|
A|-777777777777-444444444444-222222222222-000000-222222--|
E|-------------------------------------------------------|

Interlude
e|------------------------------------------------------------------------------|
B|------------------------------------------------------------------------------|
G|-999999999999-666666666666------------------------------999999999999-6---6666-|
D|-999999999999-666666666666-666666666666-888888888888-x2-999999999999-6---6666-|
A|-777777777777-444444444444-666666666666-888888888888----777777777777-4---4444-|
E|---------------------------444444444444-666666666666--------------------------|
   ............ ............ ............ ............    ............

Format

Intro 1
Intro 2
Intro 3
Verse
Chorus
Intro 2
Verse
Interlude
Chorus

            
            
Suggest correction
Creating personal tab
Creating personal tab
You can edit any tab online and save it as your Personal.

You can edit, replace or remove any tab part or add personal notes – all changes will be seen only by you.

Personal tabs can be accessed anytime from any device, even offline.
Learn more »
comments
print report bad tab
4 comments total. Showing first comments.
0 reply
isomniac19 10 Jun 21, 2007 10:34 AM

good tab but there's lead guitar too. you only showed that one time. but good rhythm guitar tab =]

+2 reply
jellykid 10 Sep 23, 2007 10:51 AM

for the intro i think its more like

e 0(x)
b 0(x)
g 6 x5
d 6
a 4
e x

e 0
b 0
g 2 x4
d 2
a 0
e 0

e 0(x)
b 0(x)
g 4 x4
d 4
a 2
e x


repeat 4 times, but on the fourth one slow down use a wammy pedal to make it sound like the sounds dying out or something :D

+1 reply
mikesimpson 10 Apr 05, 2008 09:24 PM

I'm pretty sure the second guitar part for the intro is this:

Intro Guitar 2 -  Part 1
e|-------------------------|
B|-9---9---10-------7---7--|
G|---9---9--------9---9---9| x4
D|-------------------------|
A|-------------------------|
E|-------------------------|


Intro Guitar 2 - Part 2
e|-------------------------|
B|-9---10--------7---------|
G|---9----9----9---9-------| x4
D|-------------------------|
A|-------------------------|
E|-------------------------|


Intro Guitar 2 - Part 3
e|------------------------|
B|-12-9-10-----7----------|
G|---9-9-----9---9--------| x4
D|------------------------|
A|------------------------|
E|------------------------|


i think those are all the parts for the intros and whatever

guest
You may want to rate the tab now too:
select rating
Wanna post a correction for this tab? Suggest correction