Oops, an error
Loading. Please wait.

Six Feet Under The Stars Acoustic tab

version 2
version 2

Whole song

71,546 views 6 this week
17 commentsread comments
1 2 3 4 5
x 9
add to favorites
×
Save as Personal and add changes to this tab that will be seen only by you. Learn more ›
×
You can save this tab as Personal to edit and correct it or add notes. All changes will be seen only by you. Learn more »
launch autoscroll
font size
0
reset
how to read this tab
guitar tuner
edit
Autoscroll
slow
fast
+/-
esc
set tempo
stop
Author
Song:Six Feet Under the Stars(Acoustic)[Bonus Track]
Artist:All Time Low
Album:So Wrong, It's Right

Tunning:DADGAd
Capo:1st

you'll have to figure out the stumming patter its easy but im positive its 
right.

Verse 1:

d---------------------------------|
A---------------------------------|
G-----7-----6--7------7-----6--7--|
D---0-----0---------0-----0-------|
A-0-----0------5--0-----0------5--|
D--------------5---------------5--|
 

Interlude:

d---------|
A---------|
G--11--7--|
D---------|
A--9---5--|
D--9---5--|

Chorus:

d------------------|
A------------------|
G--7--7--9--11--7--|
D------------------|x2
A-----5--7--9---5--|
D-----5--7--9---5--|

Verse 2:

d-------------------------------------|
A-------------------------------------|
G------7-----6--7--7--7--7--11--9--7--|
D----0-----0--------------------------|
A--0-----0---------5-----5--9---7--5--|
D------------------5-----5--9---7--5--|

Chorus:

d------------------|
A------------------|
G--7--7--9--11--7--|
D------------------|x2
A-----5--7--9---5--|
D-----5--7--9---5--|

Bridge:

d--------------------------|
A--------------------------|
G--4--7--7--9--7--9--7--7--|
D--4-----------------------|
A--2-----5--7--5--7--5-----|
D--x-----5--7--5--7--5-----|

Chorus:

d------------------|
A------------------|
G--7--7--9--11--7--|
D------------------|x2(first time though strum once)
A-----5--7--9---5--|
D-----5--7--9---5--|

Outro:

d---------------------------|
A---------------------------|
G--7--7--11--9--7--7--9--7--|
D---------------------------|
A-----5--9---7--5-----7--5--|
D-----5--9---7--5-----7--5--|

            
            
Suggest correction
Creating personal tab
Creating personal tab
You can edit any tab online and save it as your Personal.

You can edit, replace or remove any tab part or add personal notes – all changes will be seen only by you.

Personal tabs can be accessed anytime from any device, even offline.
Learn more »
comments
print report bad tab
17 comments total. Showing first comments.
+1 reply
heyitsmilloy23 10 Sep 07, 2008 02:25 PM

harry, i hate you for changing the tuning, haha

0 reply
Aurigo 1,082 Oct 19, 2008 08:45 AM

Eww, it dont sound right ;o

+1 reply
Hairball135 89 Oct 21, 2008 12:27 PM

what doesnt sound right?Its off a video of them playing it live they always use this tunning

guest
You may want to rate the tab now too:
select rating
Wanna post a correction for this tab? Suggest correction