Oops, an error
Loading. Please wait.

That Girl tab

112 views 1 this week
no commentswrite comment
1 2 3 4 5
2 more votes to show rating
add to favorites
×
Save as Personal and add changes to this tab that will be seen only by you. Learn more ›
×
You can save this tab as Personal to edit and correct it or add notes. All changes will be seen only by you. Learn more »
launch autoscroll
font size
0
reset
how to read this tab
guitar tuner
edit
Autoscroll
slow
fast
+/-
esc
set tempo
stop
Author
Difficulty
-----------------------------------------------------------------------------
                           THAT GIRL - All Time Low
-----------------------------------------------------------------------------
E-mail: a7xlucas@live.com

Tuning: Standard (EADGBe)

Check out my guitar cover on YouTube!: https://www.youtube.com/watch?v=DaT7JJauexQ

Definitely some interesting guitar parts in here that many people probably overlook.

Guitar 1 - Alex Gaskarth
Guitar 2 - Jack Barakat
Guitar 3 - Jack Barakat

[Intro]
(guitar 2 only)

e|-----------------|-----------------|-----------------|--------------------|
B|-----1h3-----1h3-|-----1h3-----1h3-|-----1h3-----1h3-|-----1h3-----1h3----|
G|---3-------3-----|---3-------3-----|---3-------3-----|---3-------3--------|
D|-----------------|-----------------|-1-------x-------|--------------------|
A|-1-------x-------|-----------------|-----------------|--------------------|
E|--------------2x-|-3-------x----2x-|--------------2x-|-3-------x-------1~-|


[Verse]

Guitar 1, fades out (comes in the second time the bar below is played)
e|-18tr13-------------------------------------------|
B|--------------------------------------------------|
G|--------------------------------------------------|
D|--------------------------------------------------|
A|-----------------------------------------8~\------|
E|--------------------------------------------------|
                                           ^ 00:32
Guitar 2
e|-8~----------|-6~-xxx-6--66~\---6~-xxx-6--66~\---6~-xxx-6--66~\---6~-xxx-5~-55-5~-|
B|-------------|-6~-xxx-6--66~\---8~-xxx-8--88~\---8~-xxx-8--88~\---8~-xxx-6~-66-6~-|
G|--feedback---|-7~-xxx-7--77~\---7~-xxx-7--77~\---8~-xxx-8--88~\---7~-xxx-5~-55-5~-| 2x
D|-into verse--|--------------------------------------------------------------------|
A|-------------|--------------------------------------------------------------------|
E|-------------|--------------------------------------------------------------------|
   

[Pre-Chorus]

Guitar 1 (each note fades in except the last)
e|-------------------------------------------------|
B|-------------------------------------------------|
G|-------------------------------------------------|
D|--------8~-----------------8~--------------------|
A|--------6~--------5~-------6~-----------8~\------|
E|------------------3~-----------------------------|

Guitar 2:
e|------------------3~-xxx-3--33~\--|-5~-xxx-5--55~\-|
B|-4~-xxx-3--44~\---4~-xxx-3--44~\--|-6~-xxx-6--66~\-|
G|-3~-xxx-3--33~\---3~-xxx-3--33~\--|-5~-xxx-5--55~\-|
D|-5~-xxx-5--55~\---5~-xxx-5--55~\--|----------------|
A|----------------------------------|----------------|
E|-------------------------------2x-|----------------|

Guitar 3
e|-----------------------------------------------------------------|       On the second time
B|-------3-------3-------3-------3-------3-------3-------3-------3-|       stop at the % symbol
G|---3h5-----3h5-----3h5-----3h5-----3h5-----3h5-----3h5-----3h5---| 2x 
D|-5-------5-------5-------5-------3-------3-------3-------3-------|
A|-----------------------------------------------------------------|
E|------------------------------------------------------%----------|


[Chorus]

Guitar 1
e|----------------------------------------------------------------------|
B|----------------------------------------------------------------------|
G|----------------------------------8~\--x-8--88~\--12~\--x-10--1010~\--| 3x
D|-8~\--x-8--88~\--5~\-xxx-5--55~\--8~\--x-8--88~\--12~\--x-10--1010~\--|
A|-8~\--x-8--88~\--5~\-xxx-5--55~\--6~\--x-6--66~\--10~\--x-8---8-8~-\--|
E|-6~\--x-6--66~\--3~\-xxx-3--33~\--------------------------------------|

Guitar 2:
e|-----------------3~\-xxx-3--33~\-------------------------------|
B|-----------------3~\-xxx-3--33~\-------------------------------|
G|-7~\--x-7--77~\--3~\-xxx-3--33~\--8~\--x-8--88~\---------------| 3x
D|-8~\--x-8--88~\-------------------8~\--x-8--88~\--5~\---3-33~\-|
A|-8~\--x-8--88~\-------------------6~\--x-6--66~\--5~\---3-33~\-|
E|-6~\--x-6--66~\-----------------------------------3~\---1-11~\-|


[Pre-verse]

Guitar 1
e|--------------------------------------------------------------------|
B|--------------------------------------------------------------------|
G|--------------------------------------------------------------------|
D|-------------------------------------1-1~----1-x-1~-----------------|
A|-1-1~----1-x-1~-----------------------------------------------------|
E|-------------------3-3~----3-x-3~----------------------3-3~----1-1~-|

Guitar 2
e|-----------------|-----------------|-----------------|--------------------|
B|-----1h3-----1h3-|-----1h3-----1h3-|-----1h3-----1h3-|-----1h3-----1h3----|
G|---3-------3-----|---3-------3-----|---3-------3-----|---3-------3--------|
D|-----------------|-----------------|-1-------x-------|--------------------|
A|-1-------x-------|-----------------|-----------------|--------------------|
E|--------------2x-|-3-------x----2x-|--------------2x-|-3-------x-------1~-|


[Verse]

Guitar 1 - I hear it played by tapping, easier way to play it is below
e|------------------------t10p6-t10p6-t10~p6-----t13p10-t13p10-t13p10-----t15p10-t15p10-t17p13-t17p13-|
B|-t11p6-t11p6-t11p6-t11p6------------------t11p8--------------------t15p8----------------------------|
G|----------------------------------------------------------------------------------------------------|
D|----------------------------------------------------------------------------------------------------|
A|----------------------------------------------------------------------------------------------------|
E|----------------------------------------------------------------------------------------------------|

Guitar 1 alt.
e|-------------------------10~---10~---10~----------13~---13~---13~----------15~---15~---17~---17~----|
B|-11~---11~---11~---11~------11~---11~---11~-11~------15~---15~---15~-15~------15~---15~---18~---18~-|
G|----10~---10~---10~---10~----------------------12~----------------------12~-------------------------|
D|----------------------------------------------------------------------------------------------------|
A|----------------------------------------------------------------------------------------------------|
E|----------------------------------------------------------------------------------------------------|
                                          
Guitar 2
e|-6~-xxx-6--66~\---6~-xxx-6--66~\---6~-xxx-6--66~\---6~-xxx-5~-55-5~-|
B|-6~-xxx-6--66~\---8~-xxx-8--88~\---8~-xxx-8--88~\---8~-xxx-6~-66-6~-|
G|-7~-xxx-7--77~\---7~-xxx-7--77~\---8~-xxx-8--88~\---7~-xxx-5~-55-5~-| 2x
D|--------------------------------------------------------------------|
A|--------------------------------------------------------------------|
E|--------------------------------------------------------------------|


[Pre-chorus]

Guitar 1 (each note fades in except the last)
e|-------------------------------------------------|
B|-------------------------------------------------|
G|-------------------------------------------------|
D|--------8~-----------------8~--------------------|
A|--------6~--------5~-------6~-----------8~\------|
E|------------------3~-----------------------------|

Guitar 2:
e|------------------3~-xxx-3--33~\--|-5~-xxx-5--55~\-|
B|-4~-xxx-3--44~\---4~-xxx-3--44~\--|-6~-xxx-6--66~\-|
G|-3~-xxx-3--33~\---3~-xxx-3--33~\--|-5~-xxx-5--55~\-|
D|-5~-xxx-5--55~\---5~-xxx-5--55~\--|----------------|
A|----------------------------------|----------------|
E|-------------------------------2x-|----------------|

Guitar 3
e|-----------------------------------------------------------------|       On the second time
B|-------3-------3-------3-------3-------3-------3-------3-------3-|       stop at the % symbol
G|---3h5-----3h5-----3h5-----3h5-----3h5-----3h5-----3h5-----3h5---| 2x 
D|-5-------5-------5-------5-------3-------3-------3-------3-------|
A|-----------------------------------------------------------------|
E|------------------------------------------------------%----------|


[Chorus 2]

Guitar 1
e|----------------------------------------------------------------------|
B|----------------------------------------------------------------------|
G|----------------------------------8~\--x-8--88~\--12~\--x-10--1010~\--| 2x
D|-8~\--x-8--88~\--5~\-xxx-5--55~\--8~\--x-8--88~\--12~\--x-10--1010~\--|
A|-8~\--x-8--88~\--5~\-xxx-5--55~\--6~\--x-6--66~\--10~\--x-8---8-8~-\--|
E|-6~\--x-6--66~\--3~\-xxx-3--33~\--------------------------------------|

Guitar 2:
e|-----------------3~\-xxx-3--33~\-------------------------------|
B|-----------------3~\-xxx-3--33~\-------------------------------|
G|-7~\--x-7--77~\--3~\-xxx-3--33~\--8~\--x-8--88~\---------------| 2x
D|-8~\--x-8--88~\-------------------8~\--x-8--88~\--5~\---3-33~\-|
A|-8~\--x-8--88~\-------------------6~\--x-6--66~\--5~\---3-33~\-|
E|-6~\--x-6--66~\-----------------------------------3~\---1-11~\-|

Guitar 1
e|------------------------------------------------------8b10~-8~-----|
B|-----11~-10~---------11~-10~---------11~-10~-------------------10~-|
G|-------------10~------------10~--8~\---------10~--12~\-------------| 
D|-8~\-------------5~\-------------8~\--------------12~\-------------|
A|-8~\-------------5~\-------------6~\--------------10~\-------------|
E|-6~\-------------3~\-----------------------------------------------|

Guitar 2:
e|-----------------3~\-xxx-3--33~\-------------------------------|
B|-----------------3~\-xxx-3--33~\-------------------------------|
G|-7~\--x-7--77~\--3~\-xxx-3--33~\--8~\--x-8--88~\---------------| 
D|-8~\--x-8--88~\-------------------8~\--x-8--88~\--5~\---3-33~\-|
A|-8~\--x-8--88~\-------------------6~\--x-6--66~\--5~\---3-33~\-|
E|-6~\--x-6--66~\-----------------------------------3~\---1-11~\-|


[Bridge]

Guitar 1
e|------------------------------------------------------------------------------------------------------|
B|--------------------------------------------------x-6~------------------------------------------------|
G|--------------------------------------------------x-7~------------------------------------------------|
D|-----------------------------------------55---55--x-7~------------------------------------------------|
A|---------------------------3-3----3-3----33---33------------------------------------------------------|
E|---------------------------1-1----1-1-----------------------------------------------------------------|

Guitar 2
e|-------------------------------------33--33-----------------------------------------------------------|
B|------------4------------------------44--44-----------------4-------------3-------6~/-----------------|
G|-------3~-----------3~---1010--1010--55--55-----------3~------------3~--------5----------10---10---10-|
D|---5------------5---------------------------------5-------------5-----------3---3-----10--------------|
A|-6---6--------5---5------8-8---8-8--------------6---6-----6---5---5-----5------------8--8---8---------|
E|------------------------------------------------------------------------------------------------------|


[Final chorus]

Guitar 1
e|----------------------------------------------------------------------|
B|----------------------------------------------------------------------|
G|----------------------------------8~\--x-8--88~\--12~\--x-10--1010~\--|
D|-8~\-------------5~\-xxx-5--55~\--8~\--x-8--88~\--12~\--x-10--1010~\--|
A|-8~\-------------5~\-xxx-5--55~\--6~\--x-6--66~\--10~\--x-8---8-8~-\--|
E|-6~\-------------3~\-xxx-3--33~\--------------------------------------|

Guitar 2:
e|--------------6~-3~\-xxx-3--33~\-------------------------------|
B|--------------6~-3~\-xxx-3--33~\-------------------------------|
G|-7~\----------7~-3~\-xxx-3--33~\--8~\--x-8--88~\---------------| 
D|-8~\------------------------------8~\--x-8--88~\--5~\---3-33~\-|
A|-8~\------------------------------6~\--x-6--66~\--5~\---3-33~\-|
E|-6~\----------------------------------------------3~\---1-11~\-|

Guitar 1
e|----------------------------------------------------------------------|
B|----------------------------------------------------------------------|
G|----------------------------------8~\--x-8--88~\--12~\--x-10--1010~\--|
D|-8~\--x-8--88~\--5~\-xxx-5--55~\--8~\--x-8--88~\--12~\--x-10--1010~\--|
A|-8~\--x-8--88~\--5~\-xxx-5--55~\--6~\--x-6--66~\--10~\--x-8---8-8~-\--|
E|-6~\--x-6--66~\--3~\-xxx-3--33~\--------------------------------------|

Guitar 2
e|-----------------3~\-xxx-3--33~\-------------------------------|
B|-----------------3~\-xxx-3--33~\-------------------------------|
G|-7~\--x-7--77~\--3~\-xxx-3--33~\--8~\--x-8--88~\---------------|
D|-8~\--x-8--88~\-------------------8~\--x-8--88~\--5~\---3-33~\-|
A|-8~\--x-8--88~\-------------------6~\--x-6--66~\--5~\---3-33~\-|
E|-6~\--x-6--66~\-----------------------------------3~\---1-11~\-|

Guitar 1
e|------------------------------------------------------8b10~-8~-----|
B|-----11~-10~---------11~-10~---------11~-10~-------------------10~-|
G|-------------10~------------10~--8~\---------10~-------------------| 
D|-8~\-------------5~\-------------8~\--------------5~\--------------|
A|-8~\-------------5~\-------------6~\--------------5~\--------------|
E|-6~\-------------3~\------------------------------3~\--------------|

Guitar 2:
e|-----------------3~\-xxx-3--33~\-------------------------------|
B|-----------------3~\-xxx-3--33~\-------------------------------|
G|-7~\--x-7--77~\--3~\-xxx-3--33~\--8~\--x-8--88~\---------------| 
D|-8~\--x-8--88~\-------------------8~\--x-8--88~\--5~\---3-33~\-|
A|-8~\--x-8--88~\-------------------6~\--x-6--66~\--5~\---3-33~\-|
E|-6~\--x-6--66~\-----------------------------------3~\---1-11~\-|



************************************

| x  Dead note
| h  Hammer-on
| p  Pull-off
| t  Tapping
| b  Bend
| \  Slide down
| ~  Vibrato 

************************************

            
            
Suggest correction
Creating personal tab
Creating personal tab
You can edit any tab online and save it as your Personal.

You can edit, replace or remove any tab part or add personal notes – all changes will be seen only by you.

Personal tabs can be accessed anytime from any device, even offline.
Learn more »
Give kudos to tab author, rate the tab!
1 2 3 4 5
comments
print report bad tab
guest
You may want to rate the tab now too:
select rating
Wanna post a correction for this tab? Suggest correction