Oops, an error
Loading. Please wait.
We have an official Time Bomb tab made by UG professional guitarists. Check out the tab »
×

Time Bomb tab

version 8
version 8

Whole song

Interactive

103 views 1 this week
2 commentsread comments
1 2 3 4 5
2 more votes to show rating
add to favorites
×
Save as Personal and add changes to this tab that will be seen only by you. Learn more ›
×
You can save this tab as Personal to edit and correct it or add notes. All changes will be seen only by you. Learn more »
launch autoscroll
font size
0
reset
how to read this tab
guitar tuner
edit
Autoscroll
slow
fast
+/-
esc
set tempo
stop
About this tab version
Song has been slowed down and listened too to ensure the accuracity compared to other tabs out there, remember the timmings are of 8, 12345678,12345678 like clapping. Was this info helpful? Yes No
Tabbed By Adam Walton
Email uiaov3rk1l @ outlook . com

[Intro]                                                                      
Guitar 1 (Lead)   (0.00)

e|-------------------|------------------|---------------------------------------|
B|-------------------|------------------|--------------3------------------------|
G|-------------------|------------------|----------2-4--------------------------|
D|---2-4--2-4--4-2-4-|-2-4--4-2-4--2-4--|-4-0-2-4-------------------------------|
A|-------------------|------------------|---------------------------------------|
D|-------------------|------------------|---------------------------------------|

Guitar 1 (Lead)  (0:06)                                                  
                                                                        
e|--------------------|         e|----------------------|
B|--------------------|         B|----------------------|
G|-9/--11--9/--11-----|[X2]     G|-14-------9-----------|
D|-x---x---x---x------|         D|-x--[x8]--x-[x8]------|
A|-7/--9---7/--9------|         A|-12-------7-----------|
D|--------------------|         D|----------------------|

e|--------------------|         e|----------------------|
B|--------------------|         B|----------------------|
G|-9/--11--9/--11-----|[X2]     G|-7--------9-----------|
D|-x---x---x---x------|         D|-x--[x8]--x-[x8]------|
A|-7/--9---7/--9------|         A|-5--------7-----------|
D|--------------------|         D|----------------------|

Guitar 2
(Rhythm)  
(0:06)                                                                
e|--------------------------------|   e|------------------------------|
B|--------------------------------|   B|------------------------------|
G|------------------7-------------|   G|------------------------------|
D|--9-------5-------7-[x8]--7-----|   D|--9-------5-------7-------5---|
A|--9-[x8]--5-[x8]--5-------7-[x8]|   A|--9-[x8]--5-[x8]--7-[x16]-5---|
D|--9-------5---------------7-----|   D|--9-------5-------7-------5---|

[Verse]  
(0:21) 
 Guitar 1  (Lead)  
e|---15-[x24]--14---14---12---12---------------------------------------------| (PIANO TABBED FOR GUITAR)
B|---------------------------------------------------------------------------|  
G|---------------------------------------------------------------------------| 
D|---------------------------------------------------------------------------|
A|---------------------------------------------------------------------------|
D|---------------------------------------------------------------------------|[X2]
     PM         PM  PM  PM    PM
                                                           
Guitar 2
(Rhythm)        
e|---------------------------------------------------------------------------|
B|---------------------------------------------------------------------------|
G|------------7-----------------7--------------------------------------------|
D|---5--------7-[x16]--5--------7-[x16]--------------------------------------|
A|---5-[x16]--5--------5-[x16]--5--------------------------------------------|
D|---5-----------------5-----------------------------------------------------|
     PM        PM      PM       PM

[Pre-Chorus]
(0:34)                                                
e|------------14~--------14~--|-------14~----12~-|-------14~----14~------------|
B|---10h11p10-----10h11-------|-10h11-----10-----|-10h11-----10----------------|
G|----------------------------|------------------|-----------------------------|
D|----------------------------|------------------|-----------------------------|
A|----------------------------|------------------|-----------------------------|
D|----------------------------|------------------|-----------------------------|

Guitar 2 (Rhythm) 

e|----------------------|-------------------|------------------------------------|
B|----------------------|-------------------|------------------------------------|
G|----------------------|-------------------|------------------------------------|
D|-----5--------7-------|--2--------5-------|-5----------------------------------|
A|-----5-[x16]--7-[x16]-|--2-[x16]--5-[x12]-|-5----------------------------------|
D|-----5--------7-------|--2--------5-------|-5----------------------------------|

[Chorus]  
(0.48)
Guitar 1 (Lead)
e|---------------------------------|  e|---------------------------|
B|---------------------------------|  B|---------------------------|
G|--11------7-------14------9------|  G|--11------7-------9--------|
D|--x-[x8]--x-[x8]--x-[x8]--x-[x8]-|  D|--x-[x8]--x-[x8]--x-[x16]--|
A|--9-------5-------12------7------|  A|--9-------5-------7--------|
D|---------------------------------|  D|---------------------------|

e|--------------------|               e|----------------------|
B|--------------------|               B|----------------------|
G|-9/--11--9/--11-----|[X2]           G|-14-------9-----------|
D|-x---x---x---x------|               D|-x--[x8]--x-[x8]------|
A|-7/--9---7/--9------|               A|-12-------7-----------|
D|--------------------|               D|----------------------|

e|--------------------|               e|----------------------|
B|--------------------|               B|----------------------|
G|-9/--11--9/--11-----|[X2]           G|-7--------9-----------|
D|-x---x---x---x------|               D|-x--[x8]--x-[x8]---5--|let last
A|-7/--9---7/--9------|               A|-5--------7--------5--|note ring
D|--------------------|               D|-------------------5--|into verse

Guitar 2
(Rhythm)
e|--------------------------------|   e|-----------------------------------|
B|--------------------------------|   B|-----------------------------------|
G|------------------7-------------|   G|-----------------------------------|
D|--9-------5-------7-[x8]--7-----|   D|--9-------5-------7----------------|
A|--9-[x8]--5-[x8]--5-------7-[x8]|   A|--9-[x8]--5-[x8]--7-[x16]----------|
D|--9-------5---------------7-----|   D|--9-------5-------7----------------| 

e|--------------------------------|   e|-----------------------------------|
B|--------------------------------|   B|-----------------------------------|
G|------------------7-------------|   G|-----------------------------------|
D|--9-------5-------7-[x8]--7-----|   D|--9-------5-------7--------5-------|
A|--9-[x8]--5-[x8]--5-------7-[x8]|   A|--9-[x8]--5-[x8]--7-[x8]---5-[x8]--|
D|--9-------5---------------7-----|   D|--9-------5-------7--------5-------| 


[Verse 2] (1:20)

 Guitar 1  (Lead) 
 
e|---15-[x24]--14---14---12---12---------------------------------------------| (PIANO TABBED FOR GUITAR)
B|---------------------------------------------------------------------------|  
G|---------------------------------------------------------------------------| 
D|---------------------------------------------------------------------------|
A|---------------------------------------------------------------------------|
D|---------------------------------------------------------------------------|[X2]
     PM         PM  PM  PM    PM

Guitar 2 
(Rhythm)

e|-------------------|------------------------------------------------------|
B|-------------------|------------------------------------------------------|
G|-----------7-------|----------7-------7-----------------------------------|
D|--5--------7-[x16]-|-5--------7-[x8]--7-[x8]------------------------------|
A|--5-[x15]--5-------|-5-[x16]--5-------5-----------------------------------|
D|--5----------------|-5----------------------------------------------------|
    PM       PM      PM        PM

[Pre-Chorus 2] 
(1.33)
Guitar 2 (Rhythm)
e|----------------------|------------------------------------------------------|
B|----------------------|------------------------------------------------------|
G|----------------------|------------------------------------------------------|
D|-----5--------7-------|-2--------5--------5----------------------------------|
A|-----5-[x16]--7-[x16]-|-2-[x16]--5-[x12]--5----------------------------------|
D|-----5--------7-------|-2--------5--------5----------------------------------|

[Chorus]  
(1:47)
Guitar 1 (Lead)
e|---------------------------------|  e|---------------------------|
B|---------------------------------|  B|---------------------------|
G|--11------7-------14------9------|  G|--11------7-------9--------|
D|--x-[x8]--x-[x8]--x-[x8]--x-[x8]-|  D|--x-[x8]--x-[x8]--x-[x16]--|
A|--9-------5-------12------7------|  A|--9-------5-------7--------|
D|---------------------------------|  D|---------------------------|

e|--------------------|               e|----------------------|
B|--------------------|               B|----------------------|
G|-9/--11--9/--11-----|[X2]           G|-14-------9-----------|
D|-x---x---x---x------|               D|-x--[x8]--x-[x8]------|
A|-7/--9---7/--9------|               A|-12-------7-----------|
D|--------------------|               D|----------------------|

e|--------------------|               e|----------------------|
B|--------------------|               B|----------------------|
G|-9/--11--9/--11-----|[X2]           G|-7--------9-----------|
D|-x---x---x---x------|               D|-x--[x8]--x-[x8]---5--|
A|-7/--9---7/--9------|               A|-5--------7--------5--|
D|--------------------|               D|-------------------5--|

Guitar 2 
(Rhythm)
e|--------------------------------|   e|-------------------------------|
B|--------------------------------|   B|-------------------------------|
G|------------------7-------------|   G|-------------------------------|
D|--9-------5-------7-[x8]--7-----|   D|--9-------5-------7--------5---|
A|--9-[x8]--5-[x8]--5-------7-[x8]|   A|--9-[x8]--5-[x8]--7-[x15]--5---|
D|--9-------5---------------7-----|   D|--9-------5-------7--------5---| 

e|--------------------------------|   e|-----------------------------------|
B|--------------------------------|   B|-----------------------------------|
G|------------------7-------------|   G|-----------------------------------|
D|--9-------5-------7-[x8]--7-----|   D|--9-------5-------7--------5-------|
A|--9-[x8]--5-[x8]--5-------7-[x8]|   A|--9-[x8]--5-[x8]--7-[x8]---5-[x8]--|
D|--9-------5---------------7-----|   D|--9-------5-------7--------5-------| 

[Bridge] 
(2.14)
Guitar 2 (Rhythm)
e|-----------------------------------|     e|-----------------------------------|
B|-----------------------------------|     B|-----------------------------------|
G|-----------------------------------|     G|-----------------------------------|
D|-----------------------------------|[X3] D|--5-------7-------9-------7--------|
A|-----------------------------------|     A|--5-[x8]--7-[x8]--9-[x8]--7-[x8]---|
D|--5-[x8]--7-[x8]--9-[x8]--7-[x8]---|     D|--5-------7-------9-------7--------|
    PM      PM      PM      PM                 PM     PM       PM      PM

e|------------------|--------------------------|--\\\\\\\\\\\\\\\\\\\\\\\\\\\\\\\\\\|
B|------------------|--------------------------|--\\\\\\\\\\\\\\\\\\\\\\\\\\\\\\\\\\|Pick Scrap
G|------------------|--------------------------|--\\\\\\\\\PICK SCRAP\\\\\\\\\\\\\\\|Sounds close
D|--2--------5------|--7-------9-------12------|--\\\\\\\\\\\\INTO\\\\\\\\\\\\\\\\\\|to actual 
A|--2--------5------|--7-------9-------12------|--\\\\\\\\\\\CHORUS\\\\\\\\\\\\\\\\\|sound effect
D|--2-[x12]--5-[x4]-|--7-[x4]--9-[x4]--12-[x8]-|--\\\\\\\\\\\\\\\\\\\\\\\\\\\\\\\\\\|
    PM       PM        PM     

Guitar 1 (Lead) 
Piano Guitar Tab   {Listen Closely for exact timings throughout}

Guitar 1 [Lead]
e|----17-15-14-----------------------------|--\\\\\\\\\\\\\\\\\\\\\\\\\\\\\\\\\\|
B|-------------15-14-----------------------|--\\\\\\\\\\\\\\\\\\\\\\\\\\\\\\\\\\|Pick Scrap
G|-------------------14--------------------|--\\\\\\\\\PICK SCRAP\\\\\\\\\\\\\\\|Sounds close
D|-----------------------------------------|--\\\\\\\\\\\\INTO\\\\\\\\\\\\\\\\\\|to actual 
A|-----------------------------------------|--\\\\\\\\\\\CHORUS\\\\\\\\\\\\\\\\\|sound effect
D|-----------------------------------------|--\\\\\\\\\\\\\\\\\\\\\\\\\\\\\\\\\\|

[Chorus 3] 
(2.50)
Guitar 1 (Lead)
e|---------------------------------|  e|---------------------------|
B|---------------------------------|  B|---------------------------|
G|--11------7-------14------9------|  G|--11------7-------9--------|
D|--x-[x8]--x-[x8]--x-[x8]--x-[x8]-|  D|--x-[x8]--x-[x8]--x-[x16]--|
A|--9-------5-------12------7------|  A|--9-------5-------7--------|
D|---------------------------------|  D|---------------------------|

e|--------------------|               e|----------------------|
B|--------------------|               B|----------------------|
G|-9/--11--9/--11-----|[X2]           G|-14-------9-----------|
D|-x---x---x---x------|               D|-x--[x8]--x-[x8]------|
A|-7/--9---7/--9------|               A|-12-------7-----------|
D|--------------------|               D|----------------------|

e|--------------------|               e|----------------------|
B|--------------------|               B|----------------------|
G|-9/--11--9/--11-----|[X2]           G|-7--------9-----------|
D|-x---x---x---x------|               D|-x--[x8]--x-[x8]---5--|
A|-7/--9---7/--9------|               A|-5--------7--------5--|
D|--------------------|               D|-------------------5--|

Guitar 2 (Rhythm)
e|--------------------------------|   e|-----------------------------------|
B|--------------------------------|   B|-----------------------------------|
G|------------------7-------------|   G|-----------------------------------|
D|--9-------5-------7-[x8]--7-----|   D|--9-------5-------7----------------|
A|--9-[x8]--5-[x8]--5-------7-[x8]|   A|--9-[x8]--5-[x8]--7-[x16]----------|
D|--9-------5---------------7-----|   D|--9-------5-------7----------------| 

e|--------------------------------|   e|-----------------------------------|
B|--------------------------------|   B|-----------------------------------|
G|------------------7-------------|   G|-----------------------------------|
D|--9-------5-------7-[x8]--7-----|   D|--9-------5-------7--------5-------|
A|--9-[x8]--5-[x8]--5-------7-[x8]|   A|--9-[x8]--5-[x8]--7-[x8]---5-[x8]--|
D|--9-------5---------------7-----|   D|--9-------5-------7--------5-------| 

[Outro] 
(3.18)
Guitar 2 (Rhythm)
e|-----------------------------------|
B|-----------------------------------|let last
G|-----------------------------------|note ring
D|--9-------5-------7--------5-------|out :)
A|--9-[x8]--5-[x8]--7-[x8]---5-------|
D|--9-------5-------7--------5-------| 

Guitar 1 (Lead)

e|---------------------------|
B|---------------------------|
G|--11------7-------9--------|let last
D|--x-[x8]--x-[x8]--x--------|note ring
A|--9-------5-------7--------|out :)
D|---------------------------|

************************************

| x   Dead note
| h   Hammer-on
| p   Pull-off
| \   Slide up
| ~   Vibrate
| PM  Palm mute

************************************

            
            
Suggest correction
Creating personal tab
Creating personal tab
You can edit any tab online and save it as your Personal.

You can edit, replace or remove any tab part or add personal notes – all changes will be seen only by you.

Personal tabs can be accessed anytime from any device, even offline.
Learn more »
Give kudos to tab author, rate the tab!
1 2 3 4 5
comments
print report bad tab
2 comments total.
0 reply
mongoly2k81 10 Jan 28, 2017 10:16 AM

Very Good Tab Dudeee!
Nice one with laying everything out so clear
Following you for more please :)

0 reply
GuitarTab247 117 Jan 28, 2017 10:24 AM

Cheers man means a lot, hey I'm doing some popular requested tabs. go ahead and request one in the appropriate place if there's a song you wish to learn. Great contributors on here will help :')
https://www.ultimate-guitar.com/contribution/request follow that to request

guest
You may want to rate the tab now too:
select rating
Wanna post a correction for this tab? Suggest correction