Oops, an error
Loading. Please wait.
We have an official Weightless tab made by UG professional guitarists. Check out the tab »
×
282,927 views 87 this week
17 commentsread comments
1 2 3 4 5
x 39
add to favorites
×
Save as Personal and add changes to this tab that will be seen only by you. Learn more ›
×
You can save this tab as Personal to edit and correct it or add notes. All changes will be seen only by you. Learn more »
launch autoscroll
font size
0
reset
how to read this tab
guitar tuner
backing track
0:00
0:00
edit
Autoscroll
slow
fast
+/-
esc
set tempo
stop
-------------------------------------------------------------------------------
                           Weightless - All Time Low
-------------------------------------------------------------------------------

Tabbed by:    Christopher Airey
Email:        cairey@gmail.com

Here's my tab of Weightless, tabbed by video and ear.

Tunings:

Guitar 1: Drop-D
Guitar 2: Drop-D
Guitar 3: Standard/Drop-D


[Verse 1]

Lyrics:

| Manage me, I'm a mess. Turn a page, I'm a book, half unread.
| I want to be laughed at, laughed with, just because
| I want to feel weightless, and that should be enough.


Guitar 1:

     X                 X                 X                 X
e|------------------------------------------------------------------------|
B|------------------------------------------------------------------------|
G|---0x16--------------2x16--------------------------------0x16-----------| x2
D|---------------------------------------0x16-----------------------------|
A|------------------------------------------------------------------------|
D|------------------------------------------------------------------------|

Guitar 2:

    X X X   X X X     X X X   X X X     X X X   X X X     X X X   X X X
e|------------------------------------------------------------------------|
B|--7-8-7---7-8-7-----7-8-7---7-8-7-----7-8-7---7-8-7-----7-8-7---7-8-7---|
G|------------------------------------------------------------------------| x2
D|------------------------------------------------------------------------|
A|------------------------------------------------------------------------|
D|------------------------------------------------------------------------|
 

| But I'm stuck in this fucking rut, waiting on a second hand pick-me-up,
| and I'm over getting older.

Guitar 1:

    X                 X                 X                 X
e|------------------------------------------------------------------------|
B|------------------------------------------------------------------------|
G|--0x16--------------2x16--------------------------------0x16------------|
D|--------------------------------------0x16------------------------------|
A|------------------------------------------------------------------------|
D|------------------------------------------------------------------------|


Guitar 2:

    X X X   X X X     X X X   X X X     X X X   X X X     X X X   X X X
e-------------------------------------------------------------------------|
B---7-8-7---7-8-7-----7-8-7---7-8-7-----7-8-7---7-8-7-----7-8-7---7-8-7---|
G-------------------------------------------------------------------------|
D-------------------------------------------------------------------------|
A-------------------------------------------------------------------------|
D-------------------------------------------------------------------------|

Guitar 3:

e|------------------------------------------------------------------------|
B|------------------------------------------------------------------------|
G|------------------------------------------------------------------------|
D|--55-----------------------------------00-------------------------------|
A|--55-----------------------------------00-------------------------------|
D|--55-----------------------------------00-------------------------------|


| If I could just find the time, then I would never let another day go by.
| I'm over getting old. 

Guitar 1:

    X                 X                 X                 
e|------------------------------------------------------------------------|
B|------------------------------------------------------------------------|
G|--0x16--------------2x16------------------------------------------------|
D|--------------------------------------0x16------------------------------|
A|------------------------------------------------------------------------|
D|------------------------------------------------------------------------|

Guitar 2:

    X X X   X X X     X X X   X X X 
e-------------------------------------------------------------------------|
B---7-8-7---7-8-7-----7-8-7---7-8-7---------------------------------------|
G-------------------------------------------------------------------------|
D-------------------------------------------------------------------------|
A-------------------------------------------------------------------------|
D-------------------------------------------------------------------------|

Guitar 3:

                                         XXXXXXXXXXXXXXXX
e|------------------------------------------------------------------------|
B|------------------------------------------------------------------------|
G|------------------------------------------------------------------------|
D|--5555---------------------------------0000000000000000000000000--------|
A|--5555---------------------------------0000000000000000000000000--------|
D|--5555---------------------------------0000000000000000000000000--------|


[Chorus]

| Maybe it's not my weekend, but it's gonna be my year. And I'm so sick of

Guitar 1:
                                         
e|------------------------------------------------------------------------|
B|------------------------------------------------------------------------|
G|------------------------------------------------------------------------|
D|-5-55-55-5-0-00-0-00-7-77-7-77--7-9-/12-4-------------------------------|
A|-5-55-55-5-0-00-0-00-7-77-7-77--7-9-/12-4-------------------------------|
D|-5-55-55-5-0-00-0-00-7-77-7-77--7-9-/12-4------------------------------|

Guitar 2:
    
e|------------------------------------------------------------------------|
B|------------------------------------------------------------------------|
G|-7-77-777-/-111111-111111-\-999-999-9-/-11-/14-\11----------------------|
D|------------------------------------------------------------------------|
A|-5-55-555-/-9-9-9--9-9-9--\-777-777-7-/-9--/12-\9-----------------------|
D|------------------------------------------------------------------------|

| watching while the minutes pass as I go nowhere. And this is my

Guitar 1:
                                     
e|------------------------------------------------------------------------|
B|------------------------------------------------------------------------|
G|------------------------------------------------------------------------|
D|-5-55-55-5-0-00-0-00-7-77-7-77-7-77-7-77--------------------------------|
A|-5-55-55-5-0-00-0-00-7-77-7-77-7-77-7-77--------------------------------|
D|-5-55-55-5-0-00-0-00-7-77-7-77-7-77-7-77--------------------------------|

Guitar 2:
    
e|------------------------------------------------------------------------|
B|------------------------------------------------------------------------|
G|-7-77-777--777-777--\-9999999999999999----------------------------------|
D|------------------------------------------------------------------------|
A|-5-55-555--555-555--\-7777777777777777----------------------------------|
D|------------------------------------------------------------------------|

| reaction to everything I fear.

Guitar 1:
                                         
e|------------------------------------------------------------------------|
B|------------------------------------------------------------------------|
G|-7-77--7-77--6-66--6-66--4-44--4-44-------------------------------------|
D|-7-77--7-77--6-66--6-66--4-44--4-44-------------------------------------|
A|-5-55--5-55--4-44--4-44--2-22--2-22-------------------------------------|
D|------------------------------------------------------------------------|

Guitar 2:
    
e|------------------------------------------------------------------------|
B|------------------------------------------------------------------------|
G|-1919191919191919-/-1818181818181818-/-1616161616161616-/---------------|
D|------------------------------------------------------------------------|
A|-1717171717171717-/-1616161616161616-/-1414141414141414-/---------------|
D|------------------------------------------------------------------------|

Guitar 3:
                                         
e|------------------------------------------------------------------------|
B|------------------------------------------------------------------------|
G|-----19---------------18-------14--------16-------12--------------------|
D|------------------------------------------------------------------------|
A|------------------------------------------------------------------------|
D|------------------------------------------------------------------------|

| Cause I've been going crazy. I don't wanna waste another minute here.

Guitar 1:

                                                  XXX     X   XXX
e|--------------------------------------------|---------------------------|
B|--------------------------------------------|---------------------------|
G|--------------------------------------------|---------------------------|
D|--0-00--0-00---5-55-5-55--7-\---------------|-0-000-0---0-0-000-0-------|
A|--0-00--0-00---5-55-5-55--7-\---------------|-0-000-0---0-0-000-0-------|
D|--0-00--0-00---5-55-5-55--7-\---------------|-0-000-0---0-0-000-0-------|

Guitar 2:
    
e|--------------------------------------------|---------------------------|
B|--------------------------------------------|-19-15-19-15-191915-19-15--|
G|-/-1414141414141414-/-1111111111111111-/-9--|---------------------------|x2
D|--------------------------------------------|---------------------------|
A|-/-1212121212121212-/-9-9-9-9-9-9-9-9--/-7--|---------------------------|
D|--------------------------------------------|---------------------------|

Guitar 3:
                                         
e|--------------------------------------------|---------------------------|
B|--------------------------------------------|---------------------------|
G|---14-------11------------------------------|---------------------------|
D|--------------------------------------------|--0000000000000000---------|
A|--------------------------------------------|---------------------------|
D|--------------------------------------------|---------------------------|


[Verse 2]

| Make believe that I impress. That every word, by design,
| turns a head. I wanna feel reckless, wanna live it up, just because
| I want to feel weightless. 'Cause that would be enough.

Guitar 2:

         X
e|------------------------------------------------------------------------|
B|------------------------------------------------------------------------|
G|-6/7-7-77--7-7h9-6-7p6-7p6-6-6-6-6h9---7-7-77-7-7-77h9------------------|x2
D|---------9--------------------------------9-------------5-5--55--5-5-55-|
A|------------------------------------------------------------------------|
D|------------------------------------------------------------------------|


[Bridge 1]

| If I could just find the time, then I would never let another day go by.
| I'm over getting old.

Guitar 1:
    
   XXXXXXXXXXXXXXXX XXXXXXXXXXXXXXXX XXXXXXXXXXXXXXXX                     
e|------------------------------------------------------------------------|
B|------------------------------------------------------------------------|
G|------------------------------------------------------------------------|
D|-5555555555555555-7777777777777777-000000000000000000000000-------------|
A|-5555555555555555-7777777777777777-000000000000000000000000-------------|
D|-5555555555555555-7777777777777777-000000000000000000000000-------------|

Guitar 2:
               
e|------------------------------------------------------------------------|
B|-------------5-------------5-------------5------------------------------|
G|--7-7-7-7-7-7--6-6-6-6-6-6---7-7-7-7-7-7---7-7-7-7-7--------------------|
D|------------------------------------------------------------------------|
A|------------------------------------------------------------------------|
D|------------------------------------------------------------------------|


[Chorus]
 
[Chorus Extended]


Guitar 1:

     XXX     X   XX
e|---------------------------|
B|---------------------------|
G|---------------------------|
D|-0-000-0---0-0-00-0--------|
A|-0-000-0---0-0-00-0--------|
D|-0-000-0---0-0-00-0--------|

Guitar 2:

e|---------------------------|
B|-19-15-19-15-191915-19-15--|
G|---------------------------|x2
D|---------------------------|
A|---------------------------|
D|---------------------------|

Guitar 3:

e|---------------------------|
B|---------------------------|
G|---------------------------|
D|--0000000000000000---------|
A|---------------------------|
D|---------------------------|

[Bridge 2]

| This could be all I've waited for.

Guitar 1:

                                         XXX      X   XXX 
e|------------------------------------------------------------------------|
B|------------------------------------------------------------------------|
G|------------------------------------------------------------------------|
D|-2222222222222222-5555555555555555---0-000-0----0-0-000-0---------------|
A|-2222222222222222-5555555555555555---0-000-0----0-0-000-0---------------|
D|-2222222222222222-5555555555555555---0-000-0----0-0-000-0---------------|

Guitar 2:

e|------------------------------------------------------------------------|
B|------------------------------------77-88-10-888-7--77-88-10-7----------|
G|---7--7--7--7--7---7--7--7--7--7------------------7---------------------|
D|-45-45-45-45-45--54-54-54-54-54-----------------------------------------|
A|------------------------------------------------------------------------|
D|------------------------------------------------------------------------|


| And this could be everything; I don't want to dream anymore.

Guitar 1:

                                                       XX XX XX XX XXXX
e|------------------------------------------------------------------------|
B|------------------------------------------------------------------------|
G|------------------------------------------------------------------------|
D|-2222222222222222-5555555555555555---7-7-7-7-7-7-7-7-77-77-77-77-7777---|
A|-2222222222222222-5555555555555555---7-7-7-7-7-7-7-7-77-77-77-77-7777---|
D|-2222222222222222-5555555555555555---7-7-7-7-7-7-7-7-77-77-77-77-7777---|

Guitar 2:

e|------------------------------------------------------------------------|
B|------------------------------------77-88-10-888-7--77-88-10-7----------|
G|---7--7--7--7--7---7--7--7--7--7------------------7---------------------|
D|-45-45-45-45-45--54-54-54-54-54-----------------------------------------|
A|------------------------------------------------------------------------|
D|------------------------------------------------------------------------|

| Maybe it's not my weekend. but it's gonna be my year. 
| And I've been going crazy, I'm stuck in here.

Guitar 1:
   
e|---------------------------|
B|---------------------------|
G|---------------------------|
D|-0---h2-/--5---0-----------|
A|-0---h2-/--5---0-----------|
D|-0---h2-/--5---0-----------|


[Chorus]
 
Guitar 1:

     XXX     X   X
e|---------------------------|
B|---------------------------|
G|---------------------------|
D|-0-000-0---0-0-00----------|
A|-0-000-0---0-0-00----------|
D|-0-000-0---0-0-00----------|

Guitar 2:

e|-----------------------------------|
B|-19-15-19-15-191915-19-15-19-15-19-|
G|-----------------------------------|
D|-----------------------------------|
A|-----------------------------------|
D|-----------------------------------|

Guitar 3:

e|---------------------------|
B|---------------------------|
G|---------------------------|
D|--0000000000000------------|
A|---------------------------|
D|---------------------------|



************************************

| x  Dead note
| h  Hammer-on
| p  Pull-off
| /  Slide up
| \  Slide down

************************************

            
            
Suggest correction
Creating personal tab
Creating personal tab
You can edit any tab online and save it as your Personal.

You can edit, replace or remove any tab part or add personal notes – all changes will be seen only by you.

Personal tabs can be accessed anytime from any device, even offline.
Learn more »
comments
print report bad tab
17 comments total. Showing first comments.
0 reply
Aurigo 1,082 Mar 26, 2009 01:36 PM

Very accurate, and you've tabbed it the day after the song gets streamed online. So very good job :)

0 reply
elemental music 10 Mar 27, 2009 11:39 AM

sweet tab dude!

0 reply
JessicaGonzo 231 Mar 27, 2009 05:20 PM

nice tab

guest
You may want to rate the tab now too:
select rating
Wanna post a correction for this tab? Suggest correction