Oops, an error
Loading. Please wait.
We have Chord Pro version of Willst Du.
It's the closest thing you can get to the original song and it has interactive parts. Check out the tab »
×

Willst Du intro tab

version 1
version 1

Intro

Whole song

Interactive

55,961 views 45 this week
10 commentsread comments
1 2 3 4 5
x 49
add to favorites
×
Save as Personal and add changes to this tab that will be seen only by you. Learn more ›
×
You can save this tab as Personal to edit and correct it or add notes. All changes will be seen only by you. Learn more »
launch autoscroll
font size
0
reset
how to read this tab
guitar tuner
edit
Autoscroll
slow
fast
+/-
esc
set tempo
stop
Author
Difficulty
intermediate
Ich bin mir zu 98% sicher dass das intro (was gleichzeitig auch während des verses und 
am Anfang des refrains gespielt wird) richtig ist ...

wenn ihr es auf einer western gitarre spielt dann wundert euch nicht weil die aufnahme 
erfolgte durch eine konzertgitarre und deswegen hört es sich n bissl anders an =)


[Intro]

e|----------------------------------------------------------------------------|
B|----------0-----------0-----------------------------------------------------|
G|------6h8---------6h8---------8---------------------------------------------|
D|--6-6----------------------------9----8------8------------------------------|
A|--------------7-7---------------------9------9------------------------------|
E|--------------------------7-7-------------6-----6---------------------------|


************************************

| h  Hammer-on

************************************

            
            
Suggest correction
Creating personal tab
Creating personal tab
You can edit any tab online and save it as your Personal.

You can edit, replace or remove any tab part or add personal notes – all changes will be seen only by you.

Personal tabs can be accessed anytime from any device, even offline.
Learn more »
comments
print report bad tab
10 comments total. Showing first comments.
0 reply
Blink182_Freak 10 Sep 04, 2013 04:56 AM

gut bin stolz auf dich :D

+3 reply
Trexxalon 47 Jan 09, 2014 10:50 AM

I've heard the intro several times and I'm pretty sure that two notes do not fit even if they sound nice. In Alligatoah's single version of the song, the following is played, of that I am 100% sure.

e|----------------------------------------------------------------------------|
B|----------0-----------0-----------------------------------------------------|
G|------6h8---------7h8---------8---------------------------------------------|
D|--6-6----------------------------9----8------8------------------------------|
A|--------------7-7---------------------9------9------------------------------|
E|--------------------------7-7-------------6-----6---------------------------|

0 reply
Vivush 10 Jan 31, 2014 04:00 AM

e|---------------------------------------------------------------------|
B|----------0-----------0----------------------------------------------|
G|------6h8---------6h8---------8--------------------------------------|
D|--6-6----------------------------9----8-------8---9------------------|
A|--------------7-7---------------------9---9--------------------------|
E|--------------------------7-7----------------------------------------|

guest
You may want to rate the tab now too:
select rating
Wanna post a correction for this tab? Suggest correction