Oops, an error
Loading. Please wait.
3,970 views 1 this week
1 commentread comment
1 2 3 4 5
3 more votes to show rating
add to favorites
×
Save as Personal and add changes to this tab that will be seen only by you. Learn more ›
×
You can save this tab as Personal to edit and correct it or add notes. All changes will be seen only by you. Learn more »
launch autoscroll
font size
0
reset
how to read this tab
guitar tuner
edit
Autoscroll
slow
fast
+/-
esc
set tempo
stop
Difficulty
Hola a toda la banda. Este es mi primer tab espero que este bien, ya que he visto varias
de el intro pero ninguna me suena o se necesitan 2 guitarras, con esta version solo se
una y ademas en la acustica se escucha bastante bien. Bueno espero que les ayude

1|-----------------------------------------------------|
2|-----------------------------------------------------|
3|-----------------------------------------------------|
4|----------4---------------4-----------------5--------|
5|----5-5-5----5--55----------5--5-5------------5--5-5-|
6|-------------------5-5-5-------------3-3-3-----------|


1|-------------------------|
2|-------------------------|
3|-------------------------|
4|----------7--------------|  X3
5|------------5-7-4--------|
6|---5-5-5-----------------|

Esta es la parte del bajo y despues entra la guitarra

1|-------------------     1|--------------------|
2|-------------------     2|--------------------|
3|-------------------     3|--------------------|
4|7-7-7-7-7-7-7-7-7-- X3  4|-9-9-7-9-9-7-9------|
5|5-4-5-4-5-5-4-5-4--     5|-7-7-5-7-7-5-7------|
6|-------------------     6|--------------------|

En la parte del verso solo de juegan con estos acordes dejandolos sonar libremente,iogan
rola y veran lo que les digo


1|---------------------------------------------------------------------|
2|---------------------------------------------------------------------|
3|--5------------7------------------5---------------------9------------|
4|--5------------7------------------3---------------------7------------|
5|--3------------5------------------3---------------------7------------|
6|---------------------------------------------------------------------|
 "Me como la uñas todo por tu culpa acaso no sabes que mi alma es tuya"

1|-------------------------|
2|-------------------------|
3|-9------------777--------|
4|-9------------777--------|
5|-7------------999--------|
6|-------------------------|

 "uhooo uhoooo uhoooooo"


1|-----------------------------------------------------------|
2|-----------------------------------------------------------|
3|-7-7-7-7-7-7-----------------------------------------------|
4|-7-7-7-7-7-7-7-7-7-7-7-7-5-5-5-5-5-9-9-9-5-5-5-------------|
5|-5-5-5-5-5-5-7-7-7-7-7-7-5-5-5-5-5-9-9-9-5-5-5-------------|
6|-------------5-5-5-5-5-5-3-3-3-3-3-7-7-7-3-3-3-------------|
 "Dime otra vez, que me quieres y que no te iras"

Bueno esto es la base de la cancion me faltaron algunas cosillas pero como les dije
con estos acordes y ustdes mismos las sacaran.

cualquien duda comentario o sugerencia mandenme mails

stan_may10@hotmail.com

            
            
Suggest correction
Creating personal tab
Creating personal tab
You can edit any tab online and save it as your Personal.

You can edit, replace or remove any tab part or add personal notes – all changes will be seen only by you.

Personal tabs can be accessed anytime from any device, even offline.
Learn more »
Give kudos to tab author, rate the tab!
1 2 3 4 5
comments
print report bad tab
1 comment total.
0 reply
rorro15 52 Oct 18, 2006 03:29 PM

wey la neta tu intro es el mejor de todos los ottros que han sacado aqui. Bien!!

guest
Wanna post a correction for this tab? Suggest correction