Oops, an error
Loading. Please wait.

Its Just Me tab

289 views 1 this week
no commentswrite comment
1 2 3 4 5
3 more votes to show rating
add to favorites
×
Save as Personal and add changes to this tab that will be seen only by you. Learn more ›
×
You can save this tab as Personal to edit and correct it or add notes. All changes will be seen only by you. Learn more »
launch autoscroll
font size
0
reset
how to read this tab
guitar tuner
edit
Autoscroll
slow
fast
+/-
esc
set tempo
stop
Author
Difficulty
                                  IT'S JUST ME
                             As recorded by Allister
                 (From the 1999 Album DEAD ENDS AND GIRLFRIENDS)

Music by Allister
Transcribed by Travis Nutt

 Intro
  Moderate Rock Q=100
 4/4
  Gtr III
  E E S S S E S E S S S S   E E S S S E S S S S S S S
|-------------------1-1---|---------------------------|
|-------------------1-1---|---------------------------|
|-------------------2-2-x-|-3-3-3-3-3-5-5-5-7-x-5-x-x-|
|-3-3-3-3-3-3-3-3-3-3-3-x-|-3-3-3-3-3-5-5-5-7-x-5-x-x-|
|-3-3-3-3-3-3-3-3-3-3-3-x-|-1-1-0-1-0-3-3-3-5-x-3-x-x-|
|-1-1-0-1-0-1-1-1-0-1-1-x-|-----------------------x-x-|


  E E S S S E S E S S S S   E E S S S E Q..
|-------------------1-1---|-------------------||
|-------------------1-1---|-------------------||
|-------------------2-2-x-|-3-3-3-3-3-5-------||
|-3-3-3-3-3-3-3-3-3-3-3-x-|-3-3-3-3-3-5-------||
|-3-3-3-3-3-3-3-3-3-3-3-x-|-1-1-0-1-0-3-------||
|-1-1-0-1-0-1-1-1-0-1-1-x-|-------------------||


  $
  Gtrs I, II
  E E S S S E S E S S S S   E E S S S E S S E E S
|-------------------------|-----------------------|
|-------------------------|-----------------------|
|-------------------------|-3-3-3-3-3-5-5-5-7-5---|
|-3-3-3-3-3-3-3-3-3-3-3-0-|-3-3-3-3-3-5-5-5-7-5-0-|
|-3-3-3-3-3-3-3-3-3-3-3-0-|-1-1-0-1-0-3-3-3-5-3-0-|
|-1-1-0-1-0-1-1-1-0-1-1-0-|---------------------0-|


  E E S S S E S E S S S S   E E S S S E Q..
|-------------------------|-------------------||
|-------------------------|-------------------||
|-------------------------|-3-3-3-3-3-5-------||
|-3-3-3-3-3-3-3-3-3-3-3-0-|-3-3-3-3-3-5-------||
|-3-3-3-3-3-3-3-3-3-3-3-0-|-1-1-0-1-0-3-------||
|-1-1-0-1-0-1-1-1-0-1-1-0-|-------------------||


 Verse
    PM------------------------|     PM--------|   PM|   PM|
  E S S S S S S S S S S S S S S   E S S S S S S S S S S S S E
|-------------------------------|-----------------------------|
|-------------------------------|-----------------------------|
|-------------------------------|-3-------------3-----3-----5-|
|-3-----------------------------|-3-3-3-3-3-3-3-3-3-3-3-3-3-5-|
|-3-3-3-3-3-3-3-3-3-3-3-3-3-3-3-|-1-1-1-1-1-1-1-1-1-1-1-1-1-3-|
|-1-1-1-1-1-1-1-1-1-1-1-1-1-1-1-|-----------------------------|


    PM------------------------|
  E S S S S S S S S S S S S S S
|-------------------------------|
|-------------------------------|
|-------------------------------|
|-3-----------------------------|
|-3-3-3-3-3-3-3-3-3-3-3-3-3-3-3-|
|-1-1-1-1-1-1-1-1-1-1-1-1-1-1-1-|


    PM--------|
  E S S S S S S S S S S S S S S   E E S S S E E. S S S S
|-------------------------------|-------------------------|
|-------------------------------|-------------------------|
|-3---------------------3-3-3-3-|-5-5-5-5-5-7-5--5-5-5-5--|
|-3-3-3-3-3-3-3-3-3-3-3-3-3-3-3-|-5-5-5-5-5-7-5--5-5-5-5--|
|-1-1-1-1-1-1-1-1-1-1-1-1-1-1-1-|-3-3-3-3-3-5-3--3-3-3-3--|
|-------------------------------|-------------------------|


 Pre-Chorus
  Gtr IV
   S  S  S  S  S  S  S  E  S  S  S  S  S  S  S
|----------------------------------------------|
|----------------------------------------------|
|-14-14-14-14-14-14-14-12-12-12-12-12-12-12-12-|
|--x--x--x--x--x--x--x--x--x--x--x--x--x--x--x-|
|-12-12-12-12-12-12-12-10-10-10-10-10-10-10-10-|
|----------------------------------------------|
|
| Gtrs I, II
|  E     E     S  S  S  E  S  E     S  S  S  S
|----------------------------------------------|
|----------------------------------------------|
|--7-----7-----7--7--7--5--5--5-----5--5--5--5-|
|--7-----7-----7--7--7--5--5--5-----5--5--5--5-|
|--5-----5-----5--5--5--3--3--3-----3--3--3--3-|
|----------------------------------------------|


   S  S  S  S  S  S  S  E  S  S  E  S  S  S
|-------------------------------------------|
|-------------------------------------------|
|-10-10-10-10-10-10-10-14-14-14-12-12-12-12-|
|--x--x--x--x--x--x--x--x--x--x--x--x--x--x-|
|--8--8--8--8--8--8--8-12-12-12-10-10-10-10-|
|-------------------------------------------|
|
|  E     E     S  S  S  E  S  S  E  S  S  S
|-------------------------------------------|
|-------------------------------------------|
|--3-----3-----3--3--3-----------5--5--5--5-|
|--3-----3-----3--3--3--3--3--3--5--5--5--5-|
|--1-----1-----1--1--1--3--3--3--3--3--3--3-|
|-----------------------1--1--1-------------|


   S  S  S  S  S  S  S  E  S  S  S  S  S  S  S
|----------------------------------------------|
|----------------------------------------------|
|-14-14-14-14-14-14-14-12-12-12-12-12-12-12-12-|
|--x--x--x--x--x--x--x--x--x--x--x--x--x--x--x-|
|-12-12-12-12-12-12-12-10-10-10-10-10-10-10-10-|
|----------------------------------------------|
|
|  E     E     S  S  S  E  S  E     S  S  S  S
|----------------------------------------------|
|----------------------------------------------|
|--7-----7-----7--7--7--5--5--5-----5--5--5--5-|
|--7-----7-----7--7--7--5--5--5-----5--5--5--5-|
|--5-----5-----5--5--5--3--3--3-----3--3--3--3-|
|----------------------------------------------|


   >
   W
|----------------------------------||
|----------------------------------||
|-10-------------------------------||
|--x-------------------------------||
|--8-------------------------------||
|----------------------------------||
|
|  PM----------------------------|
|  S S S S S S S S S S S S S S S S
|----------------------------------||
|----------------------------------||
|----------------------------------||
|--3-3-3-3-3-3-3-3-3-3-3-3-3-3-3-3-||
|--1-1-1-1-1-1-1-1-1-1-1-1-1-1-1-1-||
|----------------------------------||


 Chorus
  E E S S S E S E S S S S   E E S S S E S S E S S S
|-------------------------|-------------------------|
|-------------------------|-------------------------|
|-----------3-3-3-3-3-3-0-|-5-5-5-5-5-7-7-7-5-5-5-0-|
|-3-3-3-3-0-3-3-3-3-3-3-0-|-5-5-5-5-5-7-7-7-5-5-5-0-|
|-3-3-3-3-0-1-1-1-1-1-1-0-|-3-3-3-3-3-5-5-5-3-3-3-0-|
|-1-1-1-1-0---------------|-------------------------|


  E E S S S E S E S S S S   E E S S S E S S E S S S
|-------------------------|-------------------------|
|-------------------------|-------------------------|
|-----------3-3-3-3-3-3-0-|-5-5-5-5-5-7-7-7-5-5-5-0-|
|-3-3-3-3-0-3-3-3-3-3-3-0-|-5-5-5-5-5-7-7-7-5-5-5-0-|
|-3-3-3-3-0-1-1-1-1-1-1-0-|-3-3-3-3-3-5-5-5-3-3-3-0-|
|-1-1-1-1-0---------------|-------------------------|


                                           D.S.
  E E S S S E S S E S S S   E. E. E. S S S E   E
|-------------------------|----------------------||
|-------------------------|----------------------||
|-5-5-5-5-5-7-7-7-5-5-5-0-|-3--3--3--5-5-5-5---0-||
|-5-5-5-5-5-7-7-7-5-5-5-0-|-3--3--3--5-5-5-5---0-||
|-3-3-3-3-3-5-5-5-3-3-3-0-|-1--1--1--3-3-3-3---0-||
|-------------------------|--------------------0-||


 Guitar Solo
  Gtr IV
  Q   Q.         S S S S T T S   E.   Q..         S S E E
|------------------------------|------------------------5-|
|-----6----------5-6-8-6-5h6p5-|-3----------------5-6-8---|
|------------------------------|------5-------------------|
|------------------------------|--------------------------|
|------------------------------|--------------------------|
|------------------------------|--------------------------|
|
| Gtrs I, II
| E E S  S S E S E   S S S   S   E  E S   S S E S S E E S
|------------------------------|--------------------------|
|------------------------------|--------------------------|
|------------------------------|-3--3-3---3-3-5-5-5-7-5---|
|-3-3-3--3-3-3-3-3---3-3-3---0-|-3--3-3---3-3-5-5-5-7-5-0-|
|-3-3-3--3-3-3-3-3---3-3-3---0-|-1--1-0---1-0-3-3-3-5-3-0-|
|-1-1-0--1-0-1-1-1---0-1-1---0-|------------------------0-|


  Gtr IV
  S S S Q       +S  S S S E   S T T S   H      S  S  S  S    S  S  S  S
|-5h6p5-------------5h6-8-8---6-5h6-5-|------------------------------------|
|-------6-------(6)-------------------|-6------5h=6--6--5----5h=6--6--5----|
|-------------------------------------|------------------------------------|
|-------------------------------------|------------------------------------|
|-------------------------------------|------------------------------------|
|-------------------------------------|------------------------------------|
|
| Gtr V
| W                                     H      S  S  S  S    S  S  S  S
|-------------------------------------|-------12h13-13-12---12h13-13-12----|
|-------------------------------------|------------------------------------|
|-------------------------------------|------------------------------------|
|-------------------------------------|------------------------------------|
|-------------------------------------|------------------------------------|
|-------------------------------------|------------------------------------|
|
| Gtrs I, II
| E   E   S S S  E    S E   S S S   S   E E S  S  S  E  Q..
|-------------------------------------|------------------------------------|
|-------------------------------------|------------------------------------|
|-------------------------------------|-3-3-3--3--3--5---------------------|
|-3---3---3-3-3--3----3-3---3-3-3---0-|-3-3-3--3--3--5---------------------|
|-3---3---3-3-3--3----3-3---3-3-3---0-|-1-1-0--1--0--3---------------------|
|-1---1---0-1-0--1----1-1---0-1-1---0-|------------------------------------|


   ~~~~~~~~~~~~~~~~~~~~~~~~~~~~~~~~
   W                          +H..                  +E
|-13-----------------------|-(13)------------------(13)\---|
|--------------------------|-------------------------------|
|--------------------------|-------------------------------|
|--------------------------|-------------------------------|
|--------------------------|-------------------------------|
|--------------------------|-------------------------------|
|
|  >
|  ~~
|  W                           W
|--------------------------|-------------------------------|
|--6-----------------------|-------------------------------|
|--------------------------|-------------------------------|
|--------------------------|-------------------------------|
|--------------------------|-------------------------------|
|--------------------------|-------------------------------|
|
|  E E S S S E S E S S S S     E   E S S S E S S E   E   S
|--------------------------|-------------------------------|
|--------------------------|-------------------------------|
|--------------------------|---3---3-3-3-3-5-5-5-7---5-----|
|--3-3-3-3-3-3-3-3-3-3-3-0-|---3---3-3-3-3-5-5-5-7---5---0-|
|--3-3-3-3-3-3-3-3-3-3-3-0-|---1---1-0-1-0-3-3-3-5---3---0-|
|--1-1-0-1-0-1-1-1-0-1-1-0-|-----------------------------0-|


  Gtr V
                            ~                              ~~~~~~~~~~~~~~~~
   S S S E.     S S S S S S Q         S S S E      e       H           +S
|-----------------------------------|---------------------------------------||
|-/8-6-5-6------5-3---3-------------|---3---8b10---8pb10---8-----------(8)--||
|-------------------3---5-3-5-------|-5-------------------------------------||
|-----------------------------------|---------------------------------------||
|-----------------------------------|---------------------------------------||
|-----------------------------------|---------------------------------------||
|
| Gtrs I, II
|  E   E    S S S E   S E   S S S S   S S S S    S S     S E S E S S S  S
|-----------------------------------|---------------------------------------||
|-----------------------------------|---------------------------------------||
|-----------------------------------|-3-3-3-5------7-------5-5-5-5-5-5--5---||
|--3---3----3-3-3-3---3-3---3-3-3-0-|-3-3-3-5------7-------5-5-5-5-5-5--5---||
|--3---3----3-3-3-3---3-3---3-3-3-0-|-1-1-1-3------5-------3-3-3-3-3-3--3---||
|--1---1----0-1-0-1---1-1---0-1-1-0-|---------------------------------------||


 Out-Chorus
  E E S S S E S E S S S S   E E S S S E S S E S S S
|-------------------------|-------------------------|
|-------------------------|-------------------------|
|-----------3-3-3-3-3-3-0-|-5-5-5-5-5-7-7-7-5-5-5-0-|
|-3-3-3-3-0-3-3-3-3-3-3-0-|-5-5-5-5-5-7-7-7-5-5-5-0-|
|-3-3-3-3-0-1-1-1-1-1-1-0-|-3-3-3-3-3-5-5-5-3-3-3-0-|
|-1-1-1-1-0---------------|-------------------------|


  E E S S S E S E S S S S   E E S S S E S S E S S S
|-------------------------|-------------------------|
|-------------------------|-------------------------|
|-----------3-3-3-3-3-3-0-|-5-5-5-5-5-7-7-7-5-5-5-0-|
|-3-3-3-3-0-3-3-3-3-3-3-0-|-5-5-5-5-5-7-7-7-5-5-5-0-|
|-3-3-3-3-0-1-1-1-1-1-1-0-|-3-3-3-3-3-5-5-5-3-3-3-0-|
|-1-1-1-1-0---------------|-------------------------|


  E E S S S E S S E S S S   E. E. E. S S S E E
|-------------------------|--------------------|
|-------------------------|--------------------|
|-5-5-5-5-5-7-7-7-5-5-5-0-|-3--3--3--5-5-5-5-0-|
|-5-5-5-5-5-7-7-7-5-5-5-0-|-3--3--3--5-5-5-5-0-|
|-3-3-3-3-3-5-5-5-3-3-3-0-|-1--1--1--3-3-3-3-0-|
|-------------------------|------------------0-|


  W          +W
|----------|--------*|
|----------|--------*|
|----------|--------*|
|-3--------|-(3)----*|
|-3--------|-(3)----*|
|-1--------|-(1)----*|

            
            
Suggest correction
Creating personal tab
Creating personal tab
You can edit any tab online and save it as your Personal.

You can edit, replace or remove any tab part or add personal notes – all changes will be seen only by you.

Personal tabs can be accessed anytime from any device, even offline.
Learn more »
Give kudos to tab author, rate the tab!
1 2 3 4 5
comments
print report bad tab
guest
You may want to rate the tab now too:
select rating
Wanna post a correction for this tab? Suggest correction