Oops, an error
Loading. Please wait.

The Sore Feet Song tab

version 1
version 1

Whole song

Interactive

7,909 views 99 this week
3 commentsread comments
1 2 3 4 5
x 6
add to favorites
×
Save as Personal and add changes to this tab that will be seen only by you. Learn more ›
×
You can save this tab as Personal to edit and correct it or add notes. All changes will be seen only by you. Learn more »
launch autoscroll
font size
0
reset
how to read this tab
guitar tuner
edit
Autoscroll
slow
fast
+/-
esc
set tempo
stop
-------------------------------------------------------------------------------
                             The Sore Feet Song - Ally Kerr
-------------------------------------------------------------------------------
Tabbed by: Bernardo
E-mail:bparravalencia@gmail.com

Tuning: Standard - Capo 4th fret

Intro

Let ring
                
e|--------5---3p--2-----0-----0--------------5-----3p--2------0-------2-------|
B|--------3---3-------3-------3--3-----------3-----3--------3---3-----3------3|
G|------2---2-----------------2-----------0-----0-----------------2-----------|
D|----0---0----------------0-------0---------0----------------0---------------|
A|0---------------------3--------------2--------------------------------------|
E|----------------------------------------------------------------------------|

e|--------5---3p--2-----0-----0--------------5-----3p--2------0-------2-------|
B|--------3---3-------3--3----3--3-----------3-----3--------3---3-----3------3|
G|--2---2---2-----------------2------0----0-----0-----------------2-----------|
D|----0---0----------------0-------0---------0----------------0---------------|
A|0---------------------3--------------2--------------------------------------|
E|----------------------------------------------------------------------------|

Verse 1
         I walked ten thousand miles, ten thousand miles to see you...    And every  
e|---------2---------------0--------------0--------------5---3p--2----0------2-----------|
B|---------3--3------------3--3-----------3--3-----------3---3------3---3----3---3-------|
G|-----2----------2---2-----------0---0-----------0----2---2--------------2--------------|
D|---0---0------0-------0-------0-------0------0-----0----------------0------------------|
A|0-----------------3---------------2----------------------------------------------------|
E|---------------------------------------------------------------------------------------|

                 gasp of breath I grabbed at just to find you             I climbed up
e|---------2---------------0--------------0--------------5---3p--2----0------2-----------|
B|---------3--3------------3--3-----------3--3-----------3---3------3---3----3---3-------|
G|-2---2----------2---2-----------0---0-----------0----2---2--------------2--------------|
D|---0---0------0-------0-------0-------0------0-----0----------------0------------------|
A|0-----------------3---------------2----------------------------------------------------|
E|---------------------------------------------------------------------------------------|

                    every hill to get            to you                   I wandered
e|---------2---------------0--------------0--------------5---3p--2----0------2-----------|
B|---------3--3------------3--3-----------3--3-----------3---3------3---3----3---3-------|
G|-2---2----------2---2-----------0---0-----------0----2---2--------------2--------------|
D|---0---0------0-------0-------0-------0------0-----0----------------0------------------|
A|0-----------------3---------------2----------------------------------------------------|
E|---------------------------------------------------------------------------------------|

                    ancient lands to hold        just you 
e|---------2---------------0--------------0--------------5---3p--2--------------------|
B|---------3--3------------3--3-----------3--3-----------3---3------------------------|
G|-2---2----------2---2-----------0---0-----------0----2---2--------------------------|
D|---0---0------0-------0-------0-------0------0-----0--------------------------------|
A|0-----------------3---------------2-------------------------------------------------|
E|------------------------------------------------------------------------------------|

Pre-Chorus
            And every single step of the way                    I paid
     Am                      C                G  
e|0--0-----0--0--0---0-0-----0--0--0---0-0-----1--1--1---1-1-----1--1--1---1-1---------|
B|0--1h----1--1--1---1-1-----1--1--1---1-1-----0--0--0---0-0-----0--0--0---0-0---------|
G|0--2h----2--2--2---2-2-----0--0--0---0-0-----0--0--0---0-0-----0--0--0---0-0---------|
D|0--2h----2--2--2---2-2-----2--2--2---2-2-----0--0--0---0-0-----0--0--0---0-0---------|
A|0--------0-----------------3-----------------2-----------------2---------------------|
E|---------------------------------------------3---------------------------------------|

            Every single night and...                    
     Am                      C                  
e|0--0-----0--0--0---0-0-----0--0--0---0-3------|
B|0--1h----1--1--1---1-1-----1--1--1---1-1------|
G|0--2h----2--2--2---2-2-----0--0--0---0-0------|
D|0--2h----2--2--2---2-2-----2--2--2---2-2------|
A|0--------0-----------------3------------------|
E|----------------------------------------------|

            Day                          I searched    for you           through 

e|----------2------0--------0---2------3--2--------5---3---2---------0------|
B|----------3--3---3-----3--3---3------3--3--------3---3---3---3-----3---3--|
G|----------2----2-------2----------2--------------0-----------0---3-----0--|
D|----------0---------------------0----------------0-------------0----------|
A|------------------------------3------------------2-----------1------------|
E|--------------------------------------------------------------------------|
            Sandstorms and   hazy dawns I reached            for you         
e|----------0-2h-----0--------------0--------------0----------------0--------2--------|
B|----------3--------3--------------3--3-----------3--3-------------3---3-------------|
G|----------2----------2---2---2-----------0---0----------0----0----------------------|
D|----------0-----0------0-------0-------0-------0------0--------0--------------------|
A|---------------------------3---------------2---------------1------------------------|
E|------------------------------------------------------------------------------------|

Verse 2 (same as Verse 1)

e|--------5---3p--2-----0-----0--------------5-----3p--2------0-------2-------|
B|--------3---3-------3-------3--3-----------3-----3--------3---3-----3------3|
G|------2---2-----------------2-----------0-----0-----------------2-----------|
D|----0---0----------------0-------0---------0----------------0---------------|
A|0---------------------3--------------2--------------------------------------|
E|----------------------------------------------------------------------------|


         I stole ten thousand pounds, ten thousand pounds to see you...    I robbed  
e|---------2---------------0--------------0--------------5---3p--2----0------2-----------|
B|---------3--3------------3--3-----------3--3-----------3---3------3---3----3---3-------|
G|-----2----------2---2-----------0---0-----------0----2---2--------------2--------------|
D|---0---0------0-------0-------0-------0------0-----0----------------0------------------|
A|0-----------------3---------------2----------------------------------------------------|
E|---------------------------------------------------------------------------------------|

                 convenience stores cause I thought they'd make it easier... I lived off
e|---------2---------------0--------------0--------------5---3p--2----0------2-----------|
B|---------3--3------------3--3-----------3--3-----------3---3------3---3----3---3-------|
G|-2---2----------2---2-----------0---0-----------0----2---2--------------2--------------|
D|---0---0------0-------0-------0-------0------0-----0----------------0------------------|
A|0-----------------3---------------2----------------------------------------------------|
E|---------------------------------------------------------------------------------------|

                    rats and toads and I starved for you                   I fought off
e|---------2---------------0--------------0--------------5---3p--2----0------2-----------|
B|---------3--3------------3--3-----------3--3-----------3---3------3---3----3---3-------|
G|-2---2----------2---2-----------0---0-----------0----2---2--------------2--------------|
D|---0---0------0-------0-------0-------0------0-----0----------------0------------------|
A|0-----------------3---------------2----------------------------------------------------|
E|---------------------------------------------------------------------------------------|

                    giant bears and I killed       them too        
e|---------2---------------0--------------0--------------5---3p--2--------------------|
B|---------3--3------------3--3-----------3--3-----------3---3------------------------|
G|-2---2----------2---2-----------0---0-----------0----2---2--------------------------|
D|---0---0------0-------0-------0-------0------0-----0--------------------------------|
A|0-----------------3---------------2-------------------------------------------------|
E|------------------------------------------------------------------------------------|


Pre-Chorus
            And every single step of the way                    I paid
     Am                      C                G  
e|0--0-----0--0--0---0-0-----0--0--0---0-0-----1--1--1---1-1-----1--1--1---1-1---------|
B|0--1h----1--1--1---1-1-----1--1--1---1-1-----0--0--0---0-0-----0--0--0---0-0---------|
G|0--2h----2--2--2---2-2-----0--0--0---0-0-----0--0--0---0-0-----0--0--0---0-0---------|
D|0--2h----2--2--2---2-2-----2--2--2---2-2-----0--0--0---0-0-----0--0--0---0-0---------|
A|0--------0-----------------3-----------------2-----------------2---------------------|
E|---------------------------------------------3---------------------------------------|

            Every single night and...                    
     Am                      C                  
e|0--0-----0--0--0---0-0-----0--0--0---0-3------|
B|0--1h----1--1--1---1-1-----1--1--1---1-1------|
G|0--2h----2--2--2---2-2-----0--0--0---0-0------|
D|0--2h----2--2--2---2-2-----2--2--2---2-2------|
A|0--------0-----------------3------------------|
E|----------------------------------------------|

Chorus
            Day                          I searched    for you           through 

e|----------2------0--------0---2------3--2--------5---3---2---------0------|
B|----------3--3---3-----3--3---3------3--3--------3---3---3---3-----3---3--|
G|----------2----2-------2----------2--------------0-----------0---3-----0--|
D|----------0---------------------0----------------0-------------0----------|
A|------------------------------3------------------2-----------1------------|
E|--------------------------------------------------------------------------|
            Sandstorms and   hazy dawns I reached            for you         
e|----------0-2h-----0--------------0--------------0----------------0--------2--------|
B|----------3--------3--------------3--3-----------3--3-------------3---3-------------|
G|----------2----------2---2---2-----------0---0----------0----0----------------------|
D|----------0-----0------0-------0-------0-------0------0--------0--------------------|
A|---------------------------3---------------2---------------1------------------------|
E|------------------------------------------------------------------------------------|


            Tired   and   I'm   weak   but   i'm   strong for you

e|----------2------0--------0---2------3--2--------5---3---2---------0------|
B|----------3--3---3-----3--3---3------3--3--------3---3---3---3-----3---3--|
G|----------2----2-------2----------2--------------0-----------0---3-----0--|
D|----------0---------------------0----------------0-0-----------0----------|
A|------------------------------3------------------2-----------1------------|
E|--------------------------------------------------------------------------|
            I wanna   go   home   but   my  love   gets me through
e|----------0-2h-----0--------------0--------------0----------------0--------2--------|
B|----------3--------3--------------3--3-----------3--3-------------3---3-------------|
G|----------2----------2---2---2-----------0---0----------0----0----------------------|
D|----------0-----0------0-------0-------0-------0------0--------0--------------------|
A|---------------------------3---------------2---------------1------------------------|
E|------------------------------------------------------------------------------------|

         La la...    La La La         la la la        la la la

e|----------2------0--------0---2------3--2--------5---3---2---------0------|
B|----------3--3---3-----3--3---3------3--3--------3---3---3---3-----3---3--|
G|----------2----2-------2----------2--------------0-----------0---3-----0--|
D|----------0---------------------0----------------0-0-----------0----------|
A|------------------------------3------------------2-----------1------------|
E|--------------------------------------------------------------------------|
         La La...    La La La         la la la        la la la

e|----------0-2h-----0--------------0--------------0----------------0--------2--------|
B|----------3--------3--------------3--3-----------3--3-------------3---3-------------|
G|----------2----------2---2---2-----------0---0----------0----0----------------------|
D|----------0-----0------0-------0-------0-------0------0--------0--------------------|
A|---------------------------3---------------2---------------1------------------------|
E|------------------------------------------------------------------------------------|

            La

e|----------2-----2---------------0-------------0-----------2------------------|
B|------------3------3------------3--3----------3--3---3------3----------------|
G|--------------2------2------2-------------0------------2------2--------------|
D|----------0-------------------0------0------0------0-------------------------|
A|--------------------------3-------------2------------------------------------|
E|-----------------------------------------------------------------------------|

e|--------5---3p--2-----0-----0--------------5-----3p--2--------2--------------|
B|--------3---3-------3-------3--3-----------3-----3--------3---3--------------|
G|------2---2-----------------2-----------0-----0---------------2--------------|
D|----0---0----------------0-------0---------0------------------0--------------|
A|0---------------------3--------------2---------------------------------------|
E|-----------------------------------------------------------------------------|




************************************
| h   hammer-on
| p   pull-off
************************************

            
            
Suggest correction
Creating personal tab
Creating personal tab
You can edit any tab online and save it as your Personal.

You can edit, replace or remove any tab part or add personal notes – all changes will be seen only by you.

Personal tabs can be accessed anytime from any device, even offline.
Learn more »
comments
print report bad tab
3 comments total.
+4 reply
bparravalencia 41 Apr 16, 2017 02:19 PM

Would you guys also like a video tutorial available for this tab?
I know it's been a while but better late than never, right?

0 reply
jdawgpdawg 10 Apr 25, 2017 06:43 PM

yes please!

0 reply
tozkiz2 10 Aug 05, 2017 07:21 AM

yes!

guest
You may want to rate the tab now too:
select rating
Wanna post a correction for this tab? Suggest correction