Oops, an error
Loading. Please wait.

Coming Home bass

version 2
version 2

Whole song

Interactive

1,324 views 1 this week
1 commentread comment
1 2 3 4 5
x 3
add to favorites
×
Save as Personal and add changes to this tab that will be seen only by you. Learn more ›
×
You can save this tab as Personal to edit and correct it or add notes. All changes will be seen only by you. Learn more »
launch autoscroll
font size
0
reset
guitar tuner
edit
Autoscroll
slow
fast
+/-
esc
set tempo
stop
Author
Alter Bridge - "Coming Home"
From "Blackbird
Bass Tab by jjhand
Tuning - 5 String Bass (B E A D G)

This one is a really cool song, and it follows the guitar mostly
so it was easy to TAB.

Rest for 8 bars during intro, then:

G|-----------|-----------|---------|---------|---------|
D|-----------|-----------|---------|---------|---------|
A|-----------|-----------|-0-------|-(0)-----|---------|
E|-----------|-----------|-0-------|-(0)-----|---------|
B|--0--------|-0-0-0-----|---------|---------|-8-------|

G|--------------|---------|----------------------|
D|--------------|---------|----------------------|
A|--------------|---------|----------------------|
E|--------------|---------|----------------------|
B|-0-0-0--------|---------|---------10h12p10-0-8-|


Verse Riff - Play 3x

G|-------------------------|-----------------------|
D|-------------------------|-----------------------|
A|-------------------------|-----------------------|
E|-------------------------|-----------------------|
B|-0---0-0-/12-12-12-12-12-|-0---0-0-/10h12p10-0-8-|

G|-------------------------|-----------------------|---------------------|
D|-------------------------|-----------------------|---------------------|
A|-------------------------|-----------------------|---------------------|
E|-------------------------|-----------------------|---------------------|
B|-0---0-0-/10-10-10-10-10-|-0---0-0-/10h12p10-0-8-|-0---0-0-/8-8-8-8-8--|

G|-------------------|-------------------------|------------------|
D|-------------------|-------------------------|------------------|
A|-------------------|-------------------------|------------------|
E|----------5--------|-------------------------|------------------|
B|-0---0-0----5-5-3--|-0---0-0-/12-12-12-12-12-|-3-----3--1-----1-|

Pre Chorus
G|-----------|
D|-----------|
A|-----------|
E|-----------|
B|-0---------|

Chorus

G|---------------|----------------|----------------|---------------|
D|---------------|----------------|----------------|---------------|
A|---------------|----------------|----------------|---------------|
E|---------------|----------------|----------------|---------------|
B|-7--0--12--10--|-8----8--8----8-|-0----0--0----0-|-10--10-10--10-|

G|---------------|----------------|----------------|---------------|
D|---------------|----------------|----------------|---------------|
A|---------------|----------------|----------------|---------------|
E|---------------|----------------|----------------|---------------|
B|-7--0--12--10--|-8----8--8----8-|-0----0--0----0-|-10--10-10--10-|

End of Chorus 1
G|---------------|---------------|
D|---------------|---------------|
A|---------------|---------------|
E|---------------|---------------|
B|-7--0--12--10--|-7----0--0-----|

Play Verse Riff 2x and a Pre Chorus 

Play Chorus 2 times & end on Prechorus note


'Breakdown'
G|------------|-----------|-----------|-----------------------------|
D|------------|-----------|-----------|-4p2p0------2--2h4p2-0-2---0-|
A|------------|-----------|-----------|------4p2p0--------------4---|
E|------------|-----------|-----------|-----------------------------|
B|------------|-----------|-----------|-----------------------------|

G|------------|-----------|-----------|-----------------------------|
D|------------|-----------|-----------|-----------------------------|
A|------------|-----------|-----------|-7p5p4------5--4h5p4-7-5-4---|
E|------------|-----------|-----------|------7p5p3----------------7-|
B|------------|-----------|-----------|-----------------------------|

G|------------|-----------|-----------|-----------------------------|
D|------------|-----------|-----------|-4p2p0------2--2h4p2-0-2---0-|
A|------------|-----------|-----------|------4p2p0--------------4---|
E|------------|-----------|-----------|-----------------------------|
B|-12\\\\\0---|-7\\\\\\0--|-12\\\\\0--|-----------------------------|

G|------------|-----------|-----------|----------------------|
D|------------|-----------|-----------|----------------------|
A|------------|-----------|-----------|----------------------|
E|------------|-----------|-----------|------------0----2----|
B|-12\\\\\0---|-7\\\\\\0--|-12\\\\\0--|--2----3--------------|

Lyrics start here
G|-----------|-----------|------------|------------|-------------|
D|-----------|-----------|------------|------------|-------------|
A|-----------|-----------|------------|-----55-----|-------------|
E|--3--------|-5----/5---|----------5-|-3------3-3-|-5-----0h5h7-|
B|-----------|-----------|-3--2--0----|------------|-------------|

G|--------------|---------------|
D|--------------|---------------|
A|--------------|---------------|
E|--------------|--9h10----5h7--|
B|-0---0--0---0-|-0----0--0---0-|

G|-----------|-----------|------------|----------|-------------|
D|-----------|-----------|------------|----------|-------------|
A|-----------|-----------|------------|----------|-------------|
E|--3--------|-5----/5---|----------5-|-3-----333|-5----3h555-5|
B|-----------|-----------|-3--2--0----|----------|-------------|

G|---------------------|------------------|------------------|
D|---------------------|------------------|------------------|
A|---------------------|---4h5------------|---0h2------------|
E|---------------------|------------------|------------------|
B|--0-1b2r-0--0-1b2r-0-|-0-----0-0-1b2r-0-|-0-----0-0-1b2r-0-|

G|-----------------------------|-------------|
D|-----------------------------|-------------|
A|-7p5p4------5--4h5p4-7-5-4---|-------------|
E|------7p5p3----------------7-|-------------|
B|-----------------------------|----rest-----|


Play Chorus 2x


Ending
G|---------------------|------------------|------------------|
D|---------------------|------------------|------------------|
A|---------------------|---4h5------------|---0h2------------|
E|---------------------|------------------|------------------|
B|--0-1b2r-0--0-1b2r-0-|-0-----0-0-1b2r-0-|-0-----0-0-1b2r-0-|

G|-----------------------------|-------------|
D|-----------------------------|-------------|
A|-7p5p4------5--4h5p4-7-5-4---|-------------|
E|------7p5p3----------------7-|-------------|
B|-----------------------------|--0----------|


            
            
Suggest correction
Creating personal tab
Creating personal tab
You can edit any tab online and save it as your Personal.

You can edit, replace or remove any tab part or add personal notes – all changes will be seen only by you.

Personal tabs can be accessed anytime from any device, even offline.
Learn more »
Give kudos to tab author, rate the tab!
1 2 3 4 5
comments
print report bad tab
1 comment total.
0 reply
Fausch 103 Jun 28, 2010 08:50 PM

Great job. You got it better than the other version, and remembered the chord in the intro.

guest
You may want to rate the tab now too:
select rating
Wanna post a correction for this tab? Suggest correction