Oops, an error
Loading. Please wait.

Crows On A Wire tab

version 2
version 2

Whole song

  • Text version for players without Guitar Pro.

Interactive

1,816 views 24 this week
2 commentsread comments
1 2 3 4 5
x 4
add to favorites
×
Save as Personal and add changes to this tab that will be seen only by you. Learn more ›
×
You can save this tab as Personal to edit and correct it or add notes. All changes will be seen only by you. Learn more »
launch autoscroll
font size
0
reset
how to read this tab
guitar tuner
edit
Autoscroll
slow
fast
+/-
esc
set tempo
stop
About this tab version
Text version for players without Guitar Pro. Was this info helpful? Yes No
Artist: Alter Bridge
Song:   Crows On A Wire
Album:  The Last Hero
Tempo:  93 BPM
Tuning: Drop C

Mark = Mark Tremonti (duh)
Myles = Myles Kennedy (duh)

D|------------------------------------------------------|--------------------------------------------------|
A|------------------------------------------------------|--------------------------------------------------|
F|------------------------------------------------------|--------------------------------------------------|
C|-0~---------------------------------------------------|-0~-----------------------------------------------|
G|-0~---3--------------3--------5--------------7--------|-0~---3--------------3--------5-----------5p/7----|
C|-0~------0--2--3--4-----3--4-----5--6--7--9-----10-9--|-0~------0--2--3--4-----3--4-----0--5--7----------|
PM         *  *  *  *     *  *     *  *  *                        *  *  *  *     *  *     *  *  *

D|---------------------|-------------------------------------------------|---------------------|
A|---------------------|-------------------------------------------------|---------------------|
F|---------------------|-------------------------------------------------|---------------------|
C|-0----0----0----0----|-------------------------------------------------|-0----0----0----0----|
G|-0----0----0----0----|-3--------------3--------5--------------7--------|-0----0----0----0----|
C|-0----0----0----0----|----0--2--3--4-----3--4-----5--6--7--9-----10-9--|-0----0----0----0----|
PM                          *  *  *  *     *  *     *  *  *   

D|------------------------------------------|
A|------------------------------------------|
F|------------------------------------------|
C|------------------------------------------|
G|-3--------------3--------5----------------|
C|----0--2--3--4-----3--4-----0--5--7/-3b---|
PM    *  *  *  *     *  *     *  *    

[ Intro - Mark & Myles ]

D|--------------------------------------------------|------------------------------------------|
A|--------------------------------------------------|------------------------------------------|
F|--------------------------------------------------|------------------------------------------|
C|-------5--5--5-----------0---------------------1--|----------3--3-----------------5--5-------|
G|-0--0--3--3--3--4--4--4--0--0--0--0--3-2-0--0--1--|-0--0--0--1--1-------0-0-0--0--3--3-------|
C|-0--0-----------4--4--4--0--0--0--0--3-2-0--0--1--|-0--0--0--------2p0--0-0-0--0--------1p0--|
PM *  *                       *  *  *  * * *  *       *  *  *        b    * * *  *        b 

D|--------------------------------------------------|------------------------------------------|
A|--------------------------------------------------|------------------------------------------|
F|--------------------------------------------------|------------------------------------------|
C|-------5--5--5-----------0---------------------1--|----------3--3-----------------5--5-------|
G|-0--0--3--3--3--4--4--4--0--0--0--0--3-2-0--0--1--|-0--0--0--1--1-------0-0-0--0--3--3-------|
C|-0--0-----------4--4--4--0--0--0--0--3-2-0--0--1--|-0--0--0--------2p0--0-0-0--0--------1p0--|
PM *  *                       *  *  *  * * *  *       *  *  *        b    * * *  *        b 

D|--------------------------------------------------|------------------------------------------|
A|--------------------------------------------------|------------------------------------------|
F|--------------------------------------------------|------------------------------------------|
C|-------5--5--5-----------0---------------------1--|----------3--3-----------------5--5-------|
G|-0--0--3--3--3--4--4--4--0--0--0--0--3-2-0--0--1--|-0--0--0--1--1-------0-0-0--0--3--3-------|
C|-0--0-----------4--4--4--0--0--0--0--3-2-0--0--1--|-0--0--0--------2p0--0-0-0--0--------1p0--|
PM *  *                       *  *  *  * * *  *       *  *  *        b    * * *  *        b 

D|--------------------------------------------------|------------------------------------------|
A|--------------------------------------------------|------------------------------------------|
F|--------------------------------------------------|------------------------------------------|
C|-------5--5--5-----------0---------------------1--|----------3--3-----------------5--5-------|
G|-0--0--3--3--3--4--4--4--0--0--0--0--3-2-0--0--1--|-0--0--0--1--1-------0-0-0--0--3--3-------|
C|-0--0-----------4--4--4--0--0--0--0--3-2-0--0--1--|-0--0--0--------2p0--0-0-0--0--------1p0--|
PM *  *                       *  *  *  * * *  *       *  *  *        b    * * *  *        b 

[ Verse - Mark ]

D|-----------------------------------|-------------------------------|
A|-----------------------------------|-------------------------------|
F|-----------------------------------|-------------------------------|
C|-0----0----------------------------|-0----0------------------------|
G|-0----0----------------------------|-0----0------------------------|
C|-0----0----0--1--2--3--0--2--3--4--|-0----0----0--1--2--3-/5--3v---|
PM           *  *  *  *  *  *  *  *              *  *  *  *     ph

D|-----------------------------------|-------------------------------|
A|-----------------------------------|-------------------------------|
F|-----------------------------------|-------------------4~----------|
C|-0----0----------------------------|-3----3----5----x--5~----------|
G|-0----0----------------------------|-1----3----3----x--2~----------|
C|-0----0----0--1--2--3--0--2--3--4--|------3----2----x--------------|
PM           *  *  *  *  *  *  *  *   

D|-----------------------------------|-------------------------------|
A|-----------------------------------|-------------------------------|
F|-----------------------------------|-------------------------------|
C|-0----0----------------------------|-0----0------------------------|
G|-0----0----------------------------|-0----0------------------------|
C|-0----0----0--1--2--3--0--2--3--4--|-0----0----0--1--2--3-/5--3v---|
PM           *  *  *  *  *  *  *  *              *  *  *  *     ph

D|-----------------------------------|-------------------------------|
A|-----------------------------------|-------------------------------|
F|-----------------------------------|-------------------4~----------|
C|-0----0----------------------------|-3----3----5----x--5~----------|
G|-0----0----------------------------|-1----3----3----x--2~----------|
C|-0----0----0--1--2--3--0--2--3--4--|------3----2----x--------------|
PM           *  *  *  *  *  *  *  *   

[ Pre-Chorus - Mark, start with slightly palm-muting and slowly release palm mute ]

D|-----------------------------------------------|-----------------------------------------------|
A|-----------------------------------------------|-----------------------------------------------|
F|-7--7--7--8--8--8--9--9--9--10-10-10-11-11-11--|-7--7--7--8--8--8--9--9--9--10-10-10-11-11-11--|
C|-0--0--0--0--0--0--0--0--0--0--0--0--0--0--0---|-0--0--0--0--0--0--0--0--0--0--0--0--0--0--0---|
G|-----------------------------------------------|-----------------------------------------------|
C|-----------------------------------------------|-----------------------------------------------|

D|-----------------------------------------------|-----------------------------------------------|
A|-----------------------------------------------|-----------------------------------------------|
F|-7--7--7--8--8--8--9--9--9--10-10-10-11-11-11--|-7--7--7--8--8--8--9--9--9--10-10-10-11-11-----|
C|-0--0--0--0--0--0--0--0--0--0--0--0--0--0--0---|-0--0--0--0--0--0--0--0--0--0--0--0--0--0------|
G|-----------------------------------------------|-----------------------------------------------|
C|-----------------------------------------------|-----------------------------------------------|

[ Chorus - Mark ]

D|-----------------------------------|-----------------------------------|-----------------------------------|
A|-3----3----3--3--3--3---3--3--3--3-|-----------------------------------|-----------------------------------|
F|-2----2----2--2--2--2---2--2--2--2-|-5----5----5--5--5--5---5--5--5--5-|-3----3----3--3--3--3---3--3--3--3-|
C|-0----0----0--0--0--0---0--0--0--0-|-3----3----3--3--3--3---3--3--3--3-|-3----3----3--3--3--3---3--3--3--3-|
G|-0----0----0--0--0--0---0--0--0--0-|-3----3----3--3--3--3---3--3--3--3-|-1----1----1--1--1--1---1--1--1--1-|
C|-0----0----0--0--0--0---0--0--0--0-|-3----3----3--3--3--3---3--3--3--3-|-----------------------------------|

D|-------------------------------------------------|
A|-------------------------------------------------|
F|-------3--3--3--4--4--4--5--5--5--6--6--6--7--7--|
C|-------0--0--0--0--0--0--0--0--0--0--0--0--0--0--|
G|-0--0--1--1--1--2--2--2--3--3--3--4--4--4--5--5--|
C|-0--0--------------------------------------------|
PM *  *

D|-----------------------------------|-----------------------------------|-----------------------------------|
A|-3----3----3--3--3--3---3--3--3--3-|-----------------------------------|-----------------------------------|
F|-2----2----2--2--2--2---2--2--2--2-|-5----5----5--5--5--5---5--5--5--5-|-3----3----3--3--3--3---3--3--3--3-|
C|-0----0----0--0--0--0---0--0--0--0-|-3----3----3--3--3--3---3--3--3--3-|-3----3----3--3--3--3---3--3--3--3-|
G|-0----0----0--0--0--0---0--0--0--0-|-3----3----3--3--3--3---3--3--3--3-|-1----1----1--1--1--1---1--1--1--1-|
C|-0----0----0--0--0--0---0--0--0--0-|-3----3----3--3--3--3---3--3--3--3-|-----------------------------------|

[ Chorus - Myles ]

D|-----------------------------------|-----------------------------------|-----------------------------------|
A|-----------------------------------|-----------------------------------|-----------------------------------|
F|-----------------------------------|-----------------------------------|-----------------------------------|
C|-7----7----7--7--7--7---7--7--7--7-|-10---10---10-10-10-10--10-10-10-10|-8----8----8--8--8--8---8--8--8--8-|
G|-5----5----5--5--5--5---5--5--5--5-|-8----8----8--8--8--8---8--8--8--8-|-8----8----8--8--8--8---8--8--8--8-|
C|-0----0----0--0--0--0---0--0--0--0-|-----------------------------------|-8----8----8--8--8--8---8--8--8--8-|

D|-------------------------------------------------|
A|-------------------------------------------------|
F|-------10-10-10-11-11-11-12-12-12-13-13-13-14-14-|
C|-------0--0--0--0--0--0--0--0--0--0--0--0--0--0--|
G|-0--0--8--8--8--9--9--9--10-10-10-11-11-11-12-12-|
C|-0--0--------------------------------------------|
PM *  *

D|-----------------------------------|-----------------------------------|-----------------------------------|
A|-----------------------------------|-----------------------------------|-----------------------------------|
F|-7----7----7--7--7--7---7--7--7--7-|-----------------------------------|-----------------------------------|
C|-5----5----5--5--5--5---5--5--5--5-|-10---10---10-10-10-10--10-10-10-10|-8----8----8--8--8--8---8--8--8--8-|
G|-5----5----5--5--5--5---5--5--5--5-|-8----8----8--8--8--8---8--8--8--8-|-8----8----8--8--8--8---8--8--8--8-|
C|-0----0----0--0--0--0---0--0--0--0-|-----------------------------------|-8----8----8--8--8--8---8--8--8--8-|

[ Main Riff - Mark & Myles ]

D|--------------------------------------------------|------------------------------------------|
A|--------------------------------------------------|------------------------------------------|
F|--------------------------------------------------|------------------------------------------|
C|-------5--5--5-----------0---------------------1--|----------3--3-----------------5--5-------|
G|-0--0--3--3--3--4--4--4--0--0--0--0--3-2-0--0--1--|-0--0--0--1--1-------0-0-0--0--3--3-------|
C|-0--0-----------4--4--4--0--0--0--0--3-2-0--0--1--|-0--0--0--------2p0--0-0-0--0--------1p0--|
PM *  *                       *  *  *  * * *  *       *  *  *        b    * * *  *        b 

D|--------------------------------------------------|------------------------------------------|
A|--------------------------------------------------|------------------------------------------|
F|--------------------------------------------------|------------------------------------------|
C|-------5--5--5-----------0---------------------1--|----------3--3-----------------5--5-------|
G|-0--0--3--3--3--4--4--4--0--0--0--0--3-2-0--0--1--|-0--0--0--1--1-------0-0-0--0--3--3-------|
C|-0--0-----------4--4--4--0--0--0--0--3-2-0--0--1--|-0--0--0--------2p0--0-0-0--0--------1p0--|
PM *  *                       *  *  *  * * *  *       *  *  *        b    * * *  *        b 

[ Verse 2 - Mark ]

D|-----------------------------------|-------------------------------|
A|-----------------------------------|-------------------------------|
F|-----------------------------------|-------------------------------|
C|-0----0----------------------------|-0----0------------------------|
G|-0----0----------------------------|-0----0------------------------|
C|-0----0----0--1--2--3--0--2--3--4--|-0----0----0--1--2--3-/5--3v---|
PM           *  *  *  *  *  *  *  *              *  *  *  *     ph

D|-----------------------------------|-------------------------------|
A|-----------------------------------|-------------------------------|
F|-----------------------------------|-------------------4~----------|
C|-0----0----------------------------|-3----3----5----x--5~----------|
G|-0----0----------------------------|-1----3----3----x--2~----------|
C|-0----0----0--1--2--3--0--2--3--4--|------3----2----x--------------|
PM           *  *  *  *  *  *  *  *   

D|-----------------------------------|-------------------------------|
A|-----------------------------------|-------------------------------|
F|-----------------------------------|-------------------------------|
C|-0----0----------------------------|-0----0------------------------|
G|-0----0----------------------------|-0----0------------------------|
C|-0----0----0--1--2--3--0--2--3--4--|-0----0----0--1--2--3-/5--3v---|
PM           *  *  *  *  *  *  *  *              *  *  *  *     ph

D|-----------------------------------|-------------------------------|
A|-----------------------------------|-------------------------------|
F|-----------------------------------|-------------------4~----------|
C|-0----0----------------------------|-3----3----5----x--5~----------|
G|-0----0----------------------------|-1----3----3----x--2~----------|
C|-0----0----0--1--2--3--0--2--3--4--|------3----2----x--------------|
PM           *  *  *  *  *  *  *  *   

[ Pre-Chorus 2 - Mark, start with slightly palm-muting and slowly release palm mute ]

D|-----------------------------------------------|-----------------------------------------------|
A|-----------------------------------------------|-----------------------------------------------|
F|-7--7--7--8--8--8--9--9--9--10-10-10-11-11-11--|-7--7--7--8--8--8--9--9--9--10-10-10-11-11-11--|
C|-0--0--0--0--0--0--0--0--0--0--0--0--0--0--0---|-0--0--0--0--0--0--0--0--0--0--0--0--0--0--0---|
G|-----------------------------------------------|-----------------------------------------------|
C|-----------------------------------------------|-----------------------------------------------|

D|-----------------------------------------------|-----------------------------------------------|
A|-----------------------------------------------|-----------------------------------------------|
F|-7--7--7--8--8--8--9--9--9--10-10-10-11-11-11--|-7--7--7--8--8--8--9--9--9--10-10-10-11-11-----|
C|-0--0--0--0--0--0--0--0--0--0--0--0--0--0--0---|-0--0--0--0--0--0--0--0--0--0--0--0--0--0------|
G|-----------------------------------------------|-----------------------------------------------|
C|-----------------------------------------------|-----------------------------------------------|

[ Chorus 2 - Mark ]

D|-----------------------------------|-----------------------------------|-----------------------------------|
A|-3----3----3--3--3--3---3--3--3--3-|-----------------------------------|-----------------------------------|
F|-2----2----2--2--2--2---2--2--2--2-|-5----5----5--5--5--5---5--5--5--5-|-3----3----3--3--3--3---3--3--3--3-|
C|-0----0----0--0--0--0---0--0--0--0-|-3----3----3--3--3--3---3--3--3--3-|-3----3----3--3--3--3---3--3--3--3-|
G|-0----0----0--0--0--0---0--0--0--0-|-3----3----3--3--3--3---3--3--3--3-|-1----1----1--1--1--1---1--1--1--1-|
C|-0----0----0--0--0--0---0--0--0--0-|-3----3----3--3--3--3---3--3--3--3-|-----------------------------------|

D|-------------------------------------------------|
A|-------------------------------------------------|
F|-------3--3--3--4--4--4--5--5--5--6--6--6--7--7--|
C|-------0--0--0--0--0--0--0--0--0--0--0--0--0--0--|
G|-0--0--1--1--1--2--2--2--3--3--3--4--4--4--5--5--|
C|-0--0--------------------------------------------|
PM *  *

D|-----------------------------------|-----------------------------------|-----------------------------------|
A|-3----3----3--3--3--3---3--3--3--3-|-----------------------------------|-----------------------------------|
F|-2----2----2--2--2--2---2--2--2--2-|-5----5----5--5--5--5---5--5--5--5-|-3----3----3--3--3--3---3--3--3--3-|
C|-0----0----0--0--0--0---0--0--0--0-|-3----3----3--3--3--3---3--3--3--3-|-3----3----3--3--3--3---3--3--3--3-|
G|-0----0----0--0--0--0---0--0--0--0-|-3----3----3--3--3--3---3--3--3--3-|-1----1----1--1--1--1---1--1--1--1-|
C|-0----0----0--0--0--0---0--0--0--0-|-3----3----3--3--3--3---3--3--3--3-|-----------------------------------|

[ Chorus 2 - Myles ]

D|-----------------------------------|-----------------------------------|-----------------------------------|
A|-----------------------------------|-----------------------------------|-----------------------------------|
F|-----------------------------------|-----------------------------------|-----------------------------------|
C|-7----7----7--7--7--7---7--7--7--7-|-10---10---10-10-10-10--10-10-10-10|-8----8----8--8--8--8---8--8--8--8-|
G|-5----5----5--5--5--5---5--5--5--5-|-8----8----8--8--8--8---8--8--8--8-|-8----8----8--8--8--8---8--8--8--8-|
C|-0----0----0--0--0--0---0--0--0--0-|-----------------------------------|-8----8----8--8--8--8---8--8--8--8-|

D|-------------------------------------------------|
A|-------------------------------------------------|
F|-------10-10-10-11-11-11-12-12-12-13-13-13-14-14-|
C|-------0--0--0--0--0--0--0--0--0--0--0--0--0--0--|
G|-0--0--8--8--8--9--9--9--10-10-10-11-11-11-12-12-|
C|-0--0--------------------------------------------|
PM *  *

D|-----------------------------------|-----------------------------------|-----------------------------------|
A|-----------------------------------|-----------------------------------|-----------------------------------|
F|-7----7----7--7--7--7---7--7--7--7-|-----------------------------------|-----------------------------------|
C|-5----5----5--5--5--5---5--5--5--5-|-10---10---10-10-10-10--10-10-10-10|-8----8----8--8--8--8---8--8--8--8-|
G|-5----5----5--5--5--5---5--5--5--5-|-8----8----8--8--8--8---8--8--8--8-|-8----8----8--8--8--8---8--8--8--8-|
C|-0----0----0--0--0--0---0--0--0--0-|-----------------------------------|-8----8----8--8--8--8---8--8--8--8-|

[ Bridge 1 - Mark ]

D|------------------------------------------------------|---------------------|
A|------------------------------------------------------|---------------------|
F|------------------------------------------------------|---------------------|
C|-0~---------------------------------------------------|-0----0----0----0----|
G|-0~---3--------------3--------5--------------7--------|-0----0----0----0----|
C|-0~------0--2--3--4-----3--4-----5--6--7--9-----10-9--|-0----0----0----0----|
PM         *  *  *  *     *  *     *  *  *                        

D|--------------------------------------------------|
A|--------------------------------------------------|
F|--------------------------------------------------|
C|-0~-----------------------------------------------|
G|-0~---3--------------3--------5-------------------|
C|-0~------0--2--3--4-----3--4-----0--5--7--3-------|
PM         *  *  *  *     *  *     *  *  * 

[ Solo Rhythm - Mark ]

D|--------------------------------------------------|--------------------------------------------------|
A|--------------------------------------------------|--------------------------------------------------|
F|--------------------------------------------------|--------------------------------------------------|
C|-------5--5--5-----------0---------------------1--|--------------------------------------------------|
G|-0--0--3--3--3--4--4--4--0--0--0--0--3-2-0--0--1--|-0--0--0--0--0--0--0--0--0--0--0--0--0-0-0--0--0--|
C|-0--0-----------4--4--4--0--0--0--0--3-2-0--0--1--|-0--0--0--0--0--0--0--0--0--0--0--0--0-0-0--0--0--|
PM *  *                       *  *  *  * * *  *       *  *  *  *  *  *  *  *  *  *  *  *  * * *  * 

D|--------------------------------------------------|------------------------------------------|
A|--------------------------------------------------|------------------------------------------|
F|--------------------------------------------------|------------------------------------------|
C|-------5--5--5-----------0---------------------1--|----------3--3-----------------5--5-------|
G|-0--0--3--3--3--4--4--4--0--0--0--0--3-2-0--0--1--|-0--0--0--1--1-------0-0-0--0--3--3-------|
C|-0--0-----------4--4--4--0--0--0--0--3-2-0--0--1--|-0--0--0--------2p0--0-0-0--0--------1p0--|
PM *  *                       *  *  *  * * *  *       *  *  *        b    * * *  *        b 

D|--------------------------------------------------|--------------------------------------------------|
A|--------------------------------------------------|--------------------------------------------------|
F|--------------------------------------------------|--------------------------------------------------|
C|-------5--5--5-----------0---------------------1--|--------------------------------------------------|
G|-0--0--3--3--3--4--4--4--0--0--0--0--3-2-0--0--1--|-0--0--0--0--0--0--0--0--0--0--0--0--0-0-0--0--0--|
C|-0--0-----------4--4--4--0--0--0--0--3-2-0--0--1--|-0--0--0--0--0--0--0--0--0--0--0--0--0-0-0--0--0--|
PM *  *    

D|--------------------------------------------------|------------------------------------------|
A|--------------------------------------------------|------------------------------------------|
F|--------------------------------------------------|------------------------------------------|
C|-------5--5--5-----------0---------------------1--|----------3--3-----------------5--5-------|
G|-0--0--3--3--3--4--4--4--0--0--0--0--3-2-0--0--1--|-0--0--0--1--1-------0-0-0--0--3--3-------|
C|-0--0-----------4--4--4--0--0--0--0--3-2-0--0--1--|-0--0--0--------2p0--0-0-0--0--------1p0--|
PM *  *                       *  *  *  * * *  *       *  *  *        b    * * *  *        b 

[ Bridge 2 - Mark & Myles ] 

D|-------------------------------|-------------------------------|-------------------------------|
A|-------------------------------|-------------------------------|-------------------------------|
F|-3----3----3--3--3--3--x--7----|-5----5----5--5--5--5--x--7----|-3----3----3--3--3--3--x--7----|
C|-1----1----1--1--1--1--x--5----|-3----3----3--3--3--3--x--5----|-1----1----1--1--1--1--x--5----|
G|-1----1----1--1--1--1--x--5----|-3----3----3--3--3--3--x--5----|-1----1----1--1--1--1--x--5----|
C|-1----1----1--1--1--1--x--5----|-3----3----3--3--3--3--x--5----|-1----1----1--1--1--1--x--5----|


D|-------------------------------|-------------------------------|-------------------------------|
A|-------------------------------|-------------------------------|-------------------------------|
F|-5----5----5--5--5--5--x--7----|-3----3----3--3--3--3--x--7----|-5----5----5--5--5--5--x--7----|
C|-3----3----3--3--3--3--x--5----|-1----1----1--1--1--1--x--5----|-3----3----3--3--3--3--x--5----|
G|-3----3----3--3--3--3--x--5----|-1----1----1--1--1--1--x--5----|-3----3----3--3--3--3--x--5----|
C|-3----3----3--3--3--3--x--5----|-1----1----1--1--1--1--x--5----|-3----3----3--3--3--3--x--5----|


D|-------------------------------|-------------------------------|
A|-------------------------------|-------------------------------|
F|-3----3----3--3--3--3--x--7----|-5----5----5--5--5--5--3--5----|
C|-1----1----1--1--1--1--x--5----|-3----3----3--3--3--3--1--3----|
G|-1----1----1--1--1--1--x--5----|-3----3----3--3--3--3--1--3----|
C|-1----1----1--1--1--1--x--5----|-3----3----3--3--3--3--1--3----|

[ Chorus 4x - Mark ]

D|-----------------------------------|-----------------------------------|-----------------------------------|
A|-3----3----3--3--3--3---3--3--3--3-|-----------------------------------|-----------------------------------|
F|-2----2----2--2--2--2---2--2--2--2-|-5----5----5--5--5--5---5--5--5--5-|-3----3----3--3--3--3---3--3--3--3-|
C|-0----0----0--0--0--0---0--0--0--0-|-3----3----3--3--3--3---3--3--3--3-|-3----3----3--3--3--3---3--3--3--3-|
G|-0----0----0--0--0--0---0--0--0--0-|-3----3----3--3--3--3---3--3--3--3-|-1----1----1--1--1--1---1--1--1--1-|
C|-0----0----0--0--0--0---0--0--0--0-|-3----3----3--3--3--3---3--3--3--3-|-----------------------------------|

D|-------------------------------------------------|
A|-------------------------------------------------|
F|-------3--3--3--4--4--4--5--5--5--6--6--6--7--7--|
C|-------0--0--0--0--0--0--0--0--0--0--0--0--0--0--|
G|-0--0--1--1--1--2--2--2--3--3--3--4--4--4--5--5--|
C|-0--0--------------------------------------------|
PM *  *

D|-----------------------------------|-----------------------------------|-----------------------------------|
A|-3----3----3--3--3--3---3--3--3--3-|-----------------------------------|-----------------------------------|
F|-2----2----2--2--2--2---2--2--2--2-|-5----5----5--5--5--5---5--5--5--5-|-3----3----3--3--3--3---3--3--3--3-|
C|-0----0----0--0--0--0---0--0--0--0-|-3----3----3--3--3--3---3--3--3--3-|-3----3----3--3--3--3---3--3--3--3-|
G|-0----0----0--0--0--0---0--0--0--0-|-3----3----3--3--3--3---3--3--3--3-|-1----1----1--1--1--1---1--1--1--1-|
C|-0----0----0--0--0--0---0--0--0--0-|-3----3----3--3--3--3---3--3--3--3-|-----------------------------------|

D|-------------------------------------------------|
A|-------------------------------------------------|
F|-------3--3--3--4--4--4--5--5--5--6--6--6--7--7--|
C|-------0--0--0--0--0--0--0--0--0--0--0--0--0--0--|
G|-0--0--1--1--1--2--2--2--3--3--3--4--4--4--5--5--|
C|-0--0--------------------------------------------|
PM *  *

[ Chorus 4x - Myles ]

D|-----------------------------------|-----------------------------------|-----------------------------------|
A|-----------------------------------|-----------------------------------|-----------------------------------|
F|-----------------------------------|-----------------------------------|-----------------------------------|
C|-7----7----7--7--7--7---7--7--7--7-|-10---10---10-10-10-10--10-10-10-10|-8----8----8--8--8--8---8--8--8--8-|
G|-5----5----5--5--5--5---5--5--5--5-|-8----8----8--8--8--8---8--8--8--8-|-8----8----8--8--8--8---8--8--8--8-|
C|-0----0----0--0--0--0---0--0--0--0-|-----------------------------------|-8----8----8--8--8--8---8--8--8--8-|

D|-------------------------------------------------|
A|-------------------------------------------------|
F|-------10-10-10-11-11-11-12-12-12-13-13-13-14-14-|
C|-------0--0--0--0--0--0--0--0--0--0--0--0--0--0--|
G|-0--0--8--8--8--9--9--9--10-10-10-11-11-11-12-12-|
C|-0--0--------------------------------------------|
PM *  *

D|-----------------------------------|-----------------------------------|-----------------------------------|
A|-----------------------------------|-----------------------------------|-----------------------------------|
F|-7----7----7--7--7--7---7--7--7--7-|-----------------------------------|-----------------------------------|
C|-5----5----5--5--5--5---5--5--5--5-|-10---10---10-10-10-10--10-10-10-10|-8----8----8--8--8--8---8--8--8--8-|
G|-5----5----5--5--5--5---5--5--5--5-|-8----8----8--8--8--8---8--8--8--8-|-8----8----8--8--8--8---8--8--8--8-|
C|-0----0----0--0--0--0---0--0--0--0-|-----------------------------------|-8----8----8--8--8--8---8--8--8--8-|

D|-------------------------------------------------|
A|-------------------------------------------------|
F|-------10-10-10-11-11-11-12-12-12-13-13-13-14-14-|
C|-------0--0--0--0--0--0--0--0--0--0--0--0--0--0--|
G|-0--0--8--8--8--9--9--9--10-10-10-11-11-11-12-12-|
C|-0--0--------------------------------------------|
PM *  *

[ Main Riff 4x - Mark & Myles ] 

D|--------------------------------------------------|------------------------------------------|
A|--------------------------------------------------|------------------------------------------|
F|--------------------------------------------------|------------------------------------------|
C|-------5--5--5-----------0---------------------1--|----------3--3-----------------5--5-------|
G|-0--0--3--3--3--4--4--4--0--0--0--0--3-2-0--0--1--|-0--0--0--1--1-------0-0-0--0--3--3-------|
C|-0--0-----------4--4--4--0--0--0--0--3-2-0--0--1--|-0--0--0--------2p0--0-0-0--0--------1p0--|
PM *  *                       *  *  *  * * *  *       *  *  *        b    * * *  *        b 

D|--------------------------------------------------|------------------------------------------|
A|--------------------------------------------------|------------------------------------------|
F|--------------------------------------------------|------------------------------------------|
C|-------5--5--5-----------0---------------------1--|----------3--3-----------------5--5-------|
G|-0--0--3--3--3--4--4--4--0--0--0--0--3-2-0--0--1--|-0--0--0--1--1-------0-0-0--0--3--3-------|
C|-0--0-----------4--4--4--0--0--0--0--3-2-0--0--1--|-0--0--0--------2p0--0-0-0--0--------1p0--|
PM *  *                       *  *  *  * * *  *       *  *  *        b    * * *  *        b 

D|--------------------------------------------------|------------------------------------------|
A|--------------------------------------------------|------------------------------------------|
F|--------------------------------------------------|------------------------------------------|
C|-------5--5--5-----------0---------------------1--|----------3--3-----------------5--5-------|
G|-0--0--3--3--3--4--4--4--0--0--0--0--3-2-0--0--1--|-0--0--0--1--1-------0-0-0--0--3--3-------|
C|-0--0-----------4--4--4--0--0--0--0--3-2-0--0--1--|-0--0--0--------2p0--0-0-0--0--------1p0--|
PM *  *                       *  *  *  * * *  *       *  *  *        b    * * *  *        b 

D|--------------------------------------------------|------------------------------------------|
A|--------------------------------------------------|------------------------------------------|
F|--------------------------------------------------|------------------------------------------|
C|-------5--5--5-----------0---------------------1--|----------3--3-----------------5--5-------|
G|-0--0--3--3--3--4--4--4--0--0--0--0--3-2-0--0--1--|-0--0--0--1--1-------0-0-0--0--3--3-------|
C|-0--0-----------4--4--4--0--0--0--0--3-2-0--0--1--|-0--0--0--------2p0--0-0-0--0--------1p0--|
PM *  *                       *  *  *  * * *  *       *  *  *        b    * * *  *        b 

[ Outro - Mark & Myles ]

D|------------------------------------------|-----------------------------------------------|
A|------------------------------------------|-----------------------------------------------|
F|------------------------------------------|-----------------------------------------------|
C|----------3--3-----------------5--5-------|----------3--3---------5---4--3--5--4--3--0----|
G|-0--0--0--1--1-------0-0-0--0--3--3-------|-0--0--0--1--1---------3---4--3--3--4--3--0----|
C|-0--0--0--------2p0--0-0-0--0--------1p0--|-0--0--0--------2p0--------4--3-----4--3--0----|
PM *  *  *        b    * * *  *        b      *  *  *        b          *  *     *  *


************************************

| x  Dead note
| ~  Ring out
| \  Slide down
| *  Palm mute
| p  Pull-off
| b  Bend
| /  Slide up 

************************************


            
            
Suggest correction
Creating personal tab
Creating personal tab
You can edit any tab online and save it as your Personal.

You can edit, replace or remove any tab part or add personal notes – all changes will be seen only by you.

Personal tabs can be accessed anytime from any device, even offline.
Learn more »
comments
print report bad tab
2 comments total.
+1 reply
iesequeira34 22 Sep 10, 2017 12:21 AM

Fairly accurate tab mate! thanks a lot.

0 reply
Amadeus_Wolves 30 5 days ago

Very clean tab, easy to read, and pretty well spot on. Solid ear my friend!

guest
You may want to rate the tab now too:
select rating
Wanna post a correction for this tab? Suggest correction