Oops, an error
Loading. Please wait.

In Loving Memory bass

version 1
version 1

Whole song

Interactive

8,729 views 1 this week
1 commentread comment
1 2 3 4 5
x 5
add to favorites
×
Save as Personal and add changes to this tab that will be seen only by you. Learn more ›
×
You can save this tab as Personal to edit and correct it or add notes. All changes will be seen only by you. Learn more »
launch autoscroll
font size
0
reset
guitar tuner
edit
Autoscroll
slow
fast
+/-
esc
set tempo
stop
Author
Alter Bridge - "In Loving Memory"
From "One Day Remains" Album
Tuning: Db Ab Db Gb
tabbed by jjhand

Please rate/comment on this tab so others will check it out too. Bass comes
in towards the end of the first verse.

   (1:21)        First Chorus
Gb|-------------|-------------|---------------|--------------|----------------|
Db|-------------|-------------|---------------|--------------|----------5-----|
Ab|-3-----------|-------------|--------5--5---|--------------|-3----------3-5-|
Db|-------------|-5----5------|-0----0--------|-2----2--2--0-|----------------|

Gb|----------------|-------------------|-----------------|----------------|
Db|--------5-----5-|--------------0----|-----------------|----------------|
Ab|------5-----5---|------------0------|-----2-----------|-3--------------|
Db|-5--------------|-0--0--0---------5-|-2-------2--2----|----------------|


   Verse 2
Gb|---------------|----------------|--------------------|----------------|
Db|---------------|-------2--------|--------------------|----------5-----|
Ab|---------------|----2-----------|--------5---------5-|-3----------3-5-|
Db|-5---5---------|-2--------2-----|-0------------5/7---|----------------|

   Singing Starts:
Gb|---------------|---------------|----------------|---------------------|
Db|---------------|---------------|----------------|------5--------------|
Ab|---------------|---------------|------5---------|-3---------3-----/5--|
Db|-5-----5--5\---|-2-----2--2----|-0-------0------|---------------------|

Gb|---------------|---------------|------------------|------------------------|
Db|---------------|---------------|------------------|-----5------------5-----|
Ab|---------------|---------------|-----------/7-7-5-|-3-------3---2/3-5--3/5-|
Db|-5-----5--5\---|-2-----2--2----|-0-----0----------|------------------------|


Gb|---------------------|----------------|--------------------|-----------------|
Db|-----------5---------|----------------|--------------------|------5---5------|
Ab|--------------5------|----------------|------5-------5-0h2-|-3--------3----3-|
Db|-5----5----------5\--|-2------2---2---|-0-------0----------|-----------------|

Gb|-----------|------------|----------------|---------------------------|
Db|-----------|------------|----------------|------------------5--------|
Ab|-----------|------------|-----5----------|-3-3-3-3-3-3-3-3-----3--5--|
Db|-5---------|-\2---------|-0-------0------|---------------------------|


   Chorus II:
Gb|-------------|---------------|--------------|------------------5----|
Db|-------------|---------------|--------------|--------5-------5------|
Ab|-------------|---------------|--------------|-3--3-3-----2/3----3/5-|
Db|-5----5------|-0----0---0----|-2----2--2--0-|-----------------------|

Gb|-----------------|---------------------|-----------------|----------------------|
Db|--------5--5-5---|---------------------|-----------------|----------------------|
Ab|-----------------|---------------------|-----------------|-2/3-3-3-3-3---2/3--5-|
Db|-5---------------|-0------0----7/9-7\5-|-2----2-----2----|----------------------|


   Bridge
Gb|--------------------|---------------------------|-------------------------|
Db|--------------------|---------------------------|-------------------------|
Ab|-----------3---3----|-----------------------3/5-|-3---3-3-3-3-3-3-3--3--5-|
Db|-0----0-----------5-|-(5)---5-5-5-5-5-5--0------|-------------------------|

Gb|-----------------------------------|-------------------------|
Db|-----------------------------------|-------------------------|
Ab|-------------/10-10-10-10-10-10-10-|------5---2-3--3--3/5----|
Db|-5--5-5--5-------------------------|-0---------------------5-|

Gb|-----------------------|---------------------------|---------------------------|
Db|-----------------------|-----------5---------------|---------------------------|
Ab|-----------------------|-3---3-3-3---3-3---3--5----|-------------------3--5----|
Db|-(5)--5-5-5-5-5---0--0-|-------------------------5-|-(5)---5-5--5-5-5--------5-|

Gb|-------------------------|---------------------------------|
Db|-------------------------|---------------------------------|
Ab|-------------------3--5--|-6-6-6-6-6-6-6-6-6-6-6-6-6-6-6-6-|
Db|-(5)---5-5--5-5-5--------|---------------------------------|

Gb|---------------------------------|----------------------|
Db|---------------------------------|----------------------|
Ab|-5-5-5-5-5-5-5-5-5-5-5-5-5-5-5-5-|-3----3---3-3--3------|
Db|---------------------------------|----------------------|


Verse Riff played again:
Gb|----------------|-----------------|--------------|----------------|
Db|----------------|-----------------|--------------|----------------|
Ab|----------------|-----------------|--------------|-3--------------|
Db|-5--------------|-2---------------|-0------------|----------------|

Gb|----------------|-----------------|--------------|-------------------------|
Db|----------------|-----------------|--------------|-------------------------|
Ab|----------------|-----------------|--------------|-3--3-3-3--3--3---3-3-5--|
Db|-5--------------|-2---------------|-0------------|-------------------------|


Last Chorus
Gb|----------------|---------------|--------------|------------------------|
Db|----------------|---------------|--------------|------------------------|
Ab|----------------|---------------|--------------|-3--3-3-----2/3--3-3-5--|
Db|-5------5-------|-0----0---0----|-2----2--2--0-|------------------------|

Gb|-----------------|---------------------|-----------------|-------------------|
Db|-----------------|---------------------|-----------------|-------------------|
Ab|-----------------|---------------------|-----------------|-3-----------------|
Db|-5-------5-------|-0------0----7/9-7\5-|-2----2-----2----|-5-----------------|

Guitar plays ending

Key:
________
| /  slide up
| \  slide down
| h  hammer-on
| p  pull-off
| ~  vibrato
| +  harmonic
| x  Mute note

            
            
Suggest correction
Creating personal tab
Creating personal tab
You can edit any tab online and save it as your Personal.

You can edit, replace or remove any tab part or add personal notes – all changes will be seen only by you.

Personal tabs can be accessed anytime from any device, even offline.
Learn more »
comments
print report bad tab
1 comment total.
0 reply
Giabbo 126 Jun 01, 2009 03:30 PM

I asked for this tab, thank you very much for posting it :D
Good job!!

guest
You may want to rate the tab now too:
select rating
Wanna post a correction for this tab? Suggest correction