Oops, an error
Loading. Please wait.

Show Me A Leader intro tab

version 1
version 1

Intro

Whole song

  • Initial version of song :).
  • A toughy-but fun to play. I'm pretty sure Mark Tre... Show more

Interactive

8,143 views 30 this week
17 commentsread comments
1 2 3 4 5
x 11
add to favorites
×
Save as Personal and add changes to this tab that will be seen only by you. Learn more ›
×
You can save this tab as Personal to edit and correct it or add notes. All changes will be seen only by you. Learn more »
launch autoscroll
font size
0
reset
how to read this tab
guitar tuner
edit
Autoscroll
slow
fast
+/-
esc
set tempo
stop
Myles' guitar seems to be in Eb standard, and I think mark's guitar is in Drop A, however have only done
Myles' parts here:(credit for main riff goes to demonsheep in the comments):)


[Myles Intro]
D#|---7--7-8\7-------7--8\7----7/12-13-12h10-7h0---0-5p0-----0-5p0----0--0------------|
A#|--9--9-----9----10------10---------------------7-----7---7--------7--7-------------|
F#|-9--9--9----9-10---10-----10------------------8--8----8-8--8---8-9--9---9--7--5--4-|
C#|-----------------------------------------------------------------------------------|
G#|-----------------------------------------------------------------------------------|
D#|-----------------------------------------------------------------------------------|

D#|---7--7-8/7-------7--8\7----7/12-13-12h13p12-10-12h0--0-5p0-----0-5p0-----0-0----------|
A#|--9--9-----9----10------10---------------------------7-----7---7-----7---7-7-----------|
F#|-9--9--9----9-10---10-----10------------------------8--8----8-8--8----8-9-9--9--7--5--4|
C#|---------------------------------------------------------------------------------------|
G#|---------------------------------------------------------------------------------------|
D#|---------------------------------------------------------------------------------------|
(Tremelo picking part, not sure how many times but I'd say about ten times each)

D#|12/16-17-20-11/14-12--12-10-8-7--------------------------------------------|
A#|---------------------------------------------------------------------------|
F#|---------------------------------------------------------------------------|
C#|---------------------------------------------------------------------------|
G#|---------------------------------------------------------------------------|
D#|---------------------------------------------------------------------------|


[Myles Solo]

D#|----------------------------------7-7b----7-7b-7b(full)--------------------|
A#|-10~-10~-10-12b-12b-12b-12b/17b--4-----4-5---------------------------------|
F#|--------9------------------------------------------------------------------|
C#|---------------------------------------------------------------------------|
G#|---------------------------------------------------------------------------|
D#|---------------------------------------------------------------------------|
(tremelo pick again)
D#|-9--10--12--12b--15b(full)----------------------------------------------------|
A#|------------------------------------------------------------------------------|
F#|------------------------------------------------------------------------------|
C#|------------------------------------------------------------------------------|
G#|------------------------------------------------------------------------------|
D#|------------------------------------------------------------------------------|

D#|---19-19b-------19-19b----15b(full)----------------------------------------|
A#|-16-------16-17--------17--------------------------------------------------|
F#|---------------------------------------------------------------------------|
C#|---------------------------------------------------------------------------|
G#|---------------------------------------------------------------------------|
D#|---------------------------------------------------------------------------|

************************************

| h  Hammer-on
| p  Pull-off
| b  Bend
| /  Slide up
| \  Slide down
| ~  Vibrato

************************************

            
            
Suggest correction
Creating personal tab
Creating personal tab
You can edit any tab online and save it as your Personal.

You can edit, replace or remove any tab part or add personal notes – all changes will be seen only by you.

Personal tabs can be accessed anytime from any device, even offline.
Learn more »
comments
print report bad tab
17 comments total. Showing first comments.
+3 reply
demonsheep 40 Aug 17, 2016 04:37 PM

This is great!

+1 reply
jack.tyler-prime 370 Aug 18, 2016 11:18 AM

Thanks dude!

+1 reply
Jhenri 101 Aug 18, 2016 02:29 AM

Mark uses a 7 string down a step and a half if that helps.

guest
You may want to rate the tab now too:
select rating
Wanna post a correction for this tab? Suggest correction