Oops, an error
Loading. Please wait.

Twilight tab

version 2
version 2

Whole song

  • Tried to take the different layered guitar parts a... Show more

Interactive

388 views 6 this week
2 commentsread comments
1 2 3 4 5
1 last vote to show rating
add to favorites
×
Save as Personal and add changes to this tab that will be seen only by you. Learn more ›
×
You can save this tab as Personal to edit and correct it or add notes. All changes will be seen only by you. Learn more »
launch autoscroll
font size
0
reset
how to read this tab
guitar tuner
edit
Autoscroll
slow
fast
+/-
esc
set tempo
stop
About this tab version
Tried to take the different layered guitar parts and represent them all. Great song, but its complicated. Was this info helpful? Yes No
Artist/Song: Alter Bridge - "Twilight"    
Album:       The Last Hero
Tuning:      Drop Db, 3 guitar tracks on album
Tabbed by:   jjhand

A lot to take in on this song with the different parts layered together 
but I tried to break it down in Verse 1, then combine the parts in Verse 2.
Please vote or comment.

[Intro Gtr 1]
    
eb|-2h3-3--2h3-3--2h3-3--2h3-3--|-2h3-3--2h3-3--3-3-3-3-2-3--|
Bb|-3---3--3---3--3---3--3---3--|-3---3--3---3--3-3-3-3-3-3--|
Gb|-2---2--2---2--2---2--2---2--|-2---2--2---2--2-2-2-2-2-2--|
Db|-0---0--0---0--0---0--0---0--|-0---0--0---0--0-0-0-0-0-0--|  play 4x
Ab|-----------------------------|----------------------------|
Db|-----------------------------|----------------------------|

    On repeats 3 and 4, Guitar 2 adds
eb|-----------------------------|----------------10-10-10-10-10-10-|
Bb|-10p7h8-10p7h8-10p7h8-10p7h8-|-10p7h8-10p7h8--10-10-10-10-10-10-|
Gb|-----------------------------|----------------------------------|
Db|-----------------------------|----------------------------------| played 2x
Ab|-----------------------------|----------------------------------|
Db|-----------------------------|----------------------------------|



Since there are multiple parts during the Pre-Verse (before lyrics start) 
and Verse I broke them down individually:

[Verse Riff Gtr 2]

eb|-3-3---3---3---3-3---3---3---|--8--8---8---8-------------------|
Bb|-3-3---3---3---3-3---3---3---|--8--8---8---8---10-10--10--10---|
Gb|-5-5---5---5---5-5---5---5---|-10-10--10--10---12-12--12--12---|
Db|-3-3---3---3---3-3---3---3---|-10-10--10--10---12-12--12--12---|
Ab|-----------------------------|---------------------------------|
Db|-----------------------------|---------------------------------|

eb|-10-10--10--10--10-10--10--10---|-10-10--10--10---8----8----8---|
Bb|-10-10--10--10--10-10--10--10---|-10-10--10--10---8----8----8---|
Gb|-11-11--11--11--11-11--11--11---|-11-11--11--11--10---10---10---|   
Db|-12-12--12--12--12-12--12--12---|-12-12--12--12--10---10---10---|  play this  
Ab|--------------------------------|-------------------------------|  part 4x
Db|--------------------------------|-------------------------------|



    verse ending
eb|-3-3---3---3---3-3---3---3---|--8--8---8---8---10-10--10--10---|
Bb|-3-3---3---3---3-3---3---3---|--8--8---8---8---10-10--10--10---|
Gb|-5-5---5---5---5-5---5---5---|-10-10--10--10---11-11--11--11---|
Db|-3-3---3---3---3-3---3---3---|-10-10--10--10---12-12--12--12---|
Ab|-----------------------------|---------------------------------|
Db|-----------------------------|---------------------------------|

eb|-10-10--10--10--10-10--10--10---|-10-10--10--10----------------|
Bb|-10-10--10--10--10-10--10--10---|-10-10--10--10----------------|
Gb|-11-11--11--11--11-11--11--11---|-11-11--11--11----------------|   
Db|-12-12--12--12--12-12--12--12---|-12-12--12--12----------------|
Ab|--------------------------------|------------------------------|
Db|--------------------------------|------------------------------|




[PreVerse Riff Gtr 3]

eb|-----------------------|-----------------------|----------------------------|
Bb|-----------------------|-----------------------|----------------------------|
Gb|-10--9---7---5~--------|-10--9---7---5~---/9---|-7-7---7---7---7-7---7---7--|
Db|-----------------------|-----------------------|----------------------------|
Ab|-8---7---5---3~--------|-8---7---5---3~---/7---|-5-5---5---5---5-5---5---5--|
Db|-----------------------|-----------------------|----------------------------|

eb|----------------------------|
Bb|----------------------------|
Gb|-7-7---7---7---10--10--10---|
Db|----------------------------|  * play this 2x before vocals start
Ab|-5-5---5---5---8---8---8----|  * Guitar 1 plays intro strums during bars 3 & 4
Db|----------------------------|  * Guitar 2 plays above verse riff


[Verse Riff Gtr 3]
eb|-----------------------------|-------------------------------|
Bb|-----------------------------|-------------------------------|
Gb|-5-5---5---5---5-5---5---5---|-9-9---9---9---10-10--10--10---|
Db|-----------------------------|-------------------------------|
Ab|-3-3---3---3---3-3---3---3---|-7-7---7---7----8--8---8---8---|
Db|-----------------------------|-------------------------------|
   "The world has gone mad,  the future   is    so      unclear"

eb|-2h3-3--2h3-3--2h3-3--2h3-3--|-2h3-3--2h3-3------------------|
Bb|-3---3--3---3--3---3--3---3--|-3---3--3---3---6----6----6----|
Gb|-2---2--2---2--2---2--2---2--|-2---2--2---2------------------|
Db|-0---0--0---0--0---0--0---0--|-0---0--0---0---3----3----3----| 
Ab|-----------------------------|-------------------------------|
Db|-----------------------------|-------------------------------|


eb|-----------------------------|-------------------------------|
Bb|-----------------------------|-------------------------------|
Gb|-5-5---5---5---5-5---5---5---|-9-9---9---9---10-10--10--10---|
Db|-----------------------------|-------------------------------|
Ab|-3-3---3---3---3-3---3---3---|-7-7---7---7----8--8---8---8---|
Db|-----------------------------|-------------------------------|
   " Where do we stand?     It    feels like the end     is near"

eb|-2h3-3--2h3-3--2h3-3--2h3-3--|-2h3-3--2h3-3------------------|
Bb|-3---3--3---3--3---3--3---3--|-3---3--3---3---6----6----6----|
Gb|-2---2--2---2--2---2--2---2--|-2---2--2---2------------------|
Db|-0---0--0---0--0---0--0---0--|-0---0--0---0---3----3----3----| 
Ab|-----------------------------|-------------------------------|
Db|-----------------------------|-------------------------------|


eb|-----------------------------|-------------------------------|
Bb|-----------------------------|-------------------------------|
Gb|-5-5---5---5---5-5---5---5---|-9-9---9---9---10-10--10--10---|
Db|-----------------------------|-------------------------------|
Ab|-3-3---3---3---3-3---3---3---|-7-7---7---7----8--8---8---8---|
Db|-----------------------------|-------------------------------|
  " I remember everything you said and what would come to be"

eb|-2h3-3--2h3-3--2h3-3--2h3-3--|-2h3-3--2h3-3------------------|
Bb|-3---3--3---3--3---3--3---3--|-3---3--3---3---6----6----6----|
Gb|-2---2--2---2--2---2--2---2--|-2---2--2---2------------------|
Db|-0---0--0---0--0---0--0---0--|-0---0--0---0---3----3----3----| 
Ab|-----------------------------|-------------------------------|
Db|-----------------------------|-------------------------------|


eb|-----------------------------|-------------------------------|
Bb|-----------------------------|-------------------------------|
Gb|-5-5---5---5---5-5---5---5---|-9-9---9---9---10-10--10--10---|
Db|-----------------------------|-------------------------------|
Ab|-3-3---3---3---3-3---3---3---|-7-7---7---7----8--8---8---8---|
Db|-----------------------------|-------------------------------|
   "A prophet of the future, now  the future is reality" 

eb|-----------------------------|-------------------------------|
Bb|-----------------------------|-------------------------------|
Gb|-10-10--10--10-10-10--10--10-|-10-10--10--10-----------------|
Db|-----------------------------|-------------------------------| 
Ab|-8--8---8---8--8--8---8---8--|-8--8---8---8-------------0----|
Db|-----------------------------|----------------3----2---------|



[Chorus]

    Guitar 2
     C#                            Esus2                 
eb|------------------------------|---------------------------------|
Bb|--7-7---7---7---7-7---7---7---|--8--8---8---8----8--8---8---8---|
Gb|--7-7---7---7---7-7---7---7---|-10-10--10--10---10-10--10--10---|
Db|--7-7---7---7---7-7---7---7---|-10-10--10--10---10-10--10--10---|
Ab|--5-5---5---5---5-5---5---5---|--8--8---8---8----8--8---8---8---|
Db|------------------------------|---------------------------------|
  |
  | Guitar 3
eb|------------------------------|---------------------------------|
Bb|------------------------------|---------------------------------|
Gb|------------------------------|---------------------------------|
Db|--0-0---0---0---0-0---0---0---|--3--3---3---3----3--3---3---3---|
Ab|--0-0---0---0---0-0---0---0---|--3--3---3---3----3--3---3---3---|
Db|--0-0---0---0---0-0---0---0---|--3--3---3---3----3--3---3---3---|
    "Twilight                        Where do we go?   Time is 
   
     B                                  A              G#
eb|---------8---8----------8---8---|----6---6---6------5---5---5---|
Bb|--8--8---8---8---8--8---8---8---|----6---6---6------5---5---5---|
Gb|--9--9---9---9---9--9---9---9---|----7---7---7------6---6---6---|
Db|-10-10--10--10--10-10--10--10---|----8---8---8------7---7---7---|
Ab|--------------------------------|-------------------------------|
Db|--------------------------------|-------------------------------|
  |
  | Guitar 3
eb|--------------------------------|-------------------------------|
Bb|--------------------------------|-------------------------------|
Gb|--------------------------------|-------------------------------|
Db|-10-10--10--10--10-10--10--10---|----8---8---8------7---7---7---|
Ab|-10-10--10--10--10-10--10--10---|----8---8---8------7---7---7---|
Db|-10-10--10--10--10-10--10--10---|----8---8---8------7---7---7---|
   "running                            out.                   We" 
  
 
    Guitar 2
eb|------------------------------|---------------------------------|
Bb|--7-7---7---7---7-7---7---7---|--8--8---8---8----8--8---8---8---|
Gb|--7-7---7---7---7-7---7---7---|-10-10--10--10---10-10--10--10---|
Db|--7-7---7---7---7-7---7---7---|-10-10--10--10---10-10--10--10---|
Ab|--5-5---5---5---5-5---5---5---|--8--8---8---8----8--8---8---8---|
Db|------------------------------|---------------------------------|
  |
  | Guitar 3
eb|------------------------------|---------------------------------|
Bb|------------------------------|---------------------------------|
Gb|------------------------------|---------------------------------|
Db|--0-0---0---0---0-0---0---0---|--3--3---3---3----3--3---3---3---|
Ab|--0-0---0---0---0-0---0---0---|--3--3---3---3----3--3---3---3---|
Db|--0-0---0---0---0-0---0---0---|--3--3---3---3----3--3---3---3---|
    "can't         fight               Hope for a future worth"

    Guitar 2
eb|---------8---8----------8---8---|-6-----------------------------|
Bb|--8--8---8---8---8--8---8---8---|-6-----------------------------|
Gb|--9--9---9---9---9--9---9---9---|-7-----------------------------|
Db|-10-10--10--10--10-10--10--10---|-8-----------------------------|
Ab|--------------------------------|-------------------------------|
Db|--------------------------------|-------------------------------|
  |
  | Guitar 3
eb|--------------------------------|-------------------------------|
Bb|--------------------------------|-------------------------------|
Gb|--------------------------------|-------------------------------|
Db|-10-10--10--10--10-10--10--10---|-8-----------------------------|
Ab|-10-10--10--10--10-10--10--10---|-8-----------------------------|
Db|-10-10--10--10--10-10--10--10---|-8-----------------------------|
    "saving                          now"



[Pre-Verse 2]
    Guitar 2
eb|-----------------------------|----------------10-10-10-10-10-10-|
Bb|-10p7h8-10p7h8-10p7h8-10p7h8-|-10p7h8-10p7h8--10-10-10-10-10-10-|
Gb|-----------------------------|----------------------------------|
Db|-----------------------------|----------------------------------| play 2x
Ab|-----------------------------|----------------------------------|
Db|-----------------------------|----------------------------------|
  |
  | Guitar 1 or 3? 
eb|-2h3-3--2h3-3--2h3-3--2h3-3--|-2h3-3--2h3-3---3--3--3--3--2--3--|
Bb|-3---3--3---3--3---3--3---3--|-3---3--3---3---3--3--3--3--3--3--|
Gb|-2---2--2---2--2---2--2---2--|-2---2--2---2---2--2--2--2--2--2--|
Db|-0---0--0---0--0---0--0---0--|-0---0--0---0---0--0--0--0--0--0--|  play 2x
Ab|-----------------------------|----------------------------------|
Db|-----------------------------|----------------------------------|



[Verse 2]

    Gtr 2
eb|-3-3---3---3---3-3---3---3---|--8--8---8---8-------------------|
Bb|-3-3---3---3---3-3---3---3---|--8--8---8---8---10-10--10--10---|
Gb|-5-5---5---5---5-5---5---5---|-10-10--10--10---12-12--12--12---|
Db|-3-3---3---3---3-3---3---3---|-10-10--10--10---12-12--12--12---|
Ab|-----------------------------|---------------------------------|
Db|-----------------------------|---------------------------------|
  |
  | Gtr 3
eb|-----------------------------|-------------------------------|
Bb|-----------------------------|-------------------------------|
Gb|-5-5---5---5---5-5---5---5---|-9-9---9---9---10-10--10--10---|
Db|-----------------------------|-------------------------------|
Ab|-3-3---3---3---3-3---3---3---|-7-7---7---7----8--8---8---8---|
Db|-----------------------------|-------------------------------|
   "One thing's for sure,   we    must accept   and     change"

    Gtr 2
eb|-10-10--10--10--10-10--10--10---|-10-10--10--10---8----8----8---|
Bb|-10-10--10--10--10-10--10--10---|-10-10--10--10---8----8----8---|
Gb|-11-11--11--11--11-11--11--11---|-11-11--11--11--10---10---10---|   
Db|-12-12--12--12--12-12--12--12---|-12-12--12--12--10---10---10---|  
Ab|--------------------------------|-------------------------------|
Db|--------------------------------|-------------------------------|
  |
  | Gtr 3
eb|-2h3-3--2h3-3--2h3-3--2h3-3----|-2h3-3--2h3-3------------------|
Bb|-3---3--3---3--3---3--3---3----|-3---3--3---3---6----6----6----|
Gb|-2---2--2---2--2---2--2---2----|-2---2--2---2------------------|
Db|-0---0--0---0--0---0--0---0----|-0---0--0---0---3----3----3----| 
Ab|-------------------------------|-------------------------------|
Db|-------------------------------|-------------------------------|


    Gtr 2
eb|-3-3---3---3---3-3---3---3---|--8--8---8---8-------------------|
Bb|-3-3---3---3---3-3---3---3---|--8--8---8---8---10-10--10--10---|
Gb|-5-5---5---5---5-5---5---5---|-10-10--10--10---12-12--12--12---|
Db|-3-3---3---3---3-3---3---3---|-10-10--10--10---12-12--12--12---|
Ab|-----------------------------|---------------------------------|
Db|-----------------------------|---------------------------------|
  |
  | Gtr 3
eb|-----------------------------|-------------------------------|
Bb|-----------------------------|-------------------------------|
Gb|-5-5---5---5---5-5---5---5---|-9-9---9---9---10-10--10--10---|
Db|-----------------------------|-------------------------------|
Ab|-3-3---3---3---3-3---3---3---|-7-7---7---7----8--8---8---8---|
Db|-----------------------------|-------------------------------|
   " Or we in time       will    just have ourselves to blame"

    Gtr 2
eb|-10-10--10--10--10-10--10--10---|-10-10--10--10---8----8----8---|
Bb|-10-10--10--10--10-10--10--10---|-10-10--10--10---8----8----8---|
Gb|-11-11--11--11--11-11--11--11---|-11-11--11--11--10---10---10---|   
Db|-12-12--12--12--12-12--12--12---|-12-12--12--12--10---10---10---|  
Ab|--------------------------------|-------------------------------|
Db|--------------------------------|-------------------------------|
  |
  | Gtr 3
eb|-2h3-3--2h3-3---2h3-3--2h3-3----|-2h3-3--2h3-3------------------|
Bb|-3---3--3---3---3---3--3---3----|-3---3--3---3---6----6----6----|
Gb|-2---2--2---2---2---2--2---2----|-2---2--2---2------------------|
Db|-0---0--0---0---0---0--0---0----|-0---0--0---0---3----3----3----| 
Ab|--------------------------------|-------------------------------|
Db|--------------------------------|-------------------------------|



    Gtr 2
eb|-3-----3-----3---------------|--8--8---8---8---10-10--10--10---|
Bb|-3-----3-----3---------------|--8--8---8---8---10-10--10--10---|
Gb|-5-----5-----5---------------|-10-10--10--10---11-11--11--11---|
Db|-3-----3-----3---------------|-10-10--10--10---12-12--12--12---|
Ab|-----------------------------|---------------------------------|
Db|-----------------------------|---------------------------------|
  |
  | Gtr 3
eb|-----------------------------|-------------------------------|
Bb|-----------------------------|-------------------------------|
Gb|-5-----5-----5---------------|-9-9---9---9---10-10--10--10---|
Db|-----------------------------|-------------------------------|
Ab|-3-----3-----3---------------|-7-7---7---7----8--8---8---8---|
Db|-----------------------------|-------------------------------|
   "Divided by differences,   now everything is torn apart"


    Gtr 2
eb|-10-10--10--10--10-10--10--10---|-10-10--10--10---8----8----8---|
Bb|-10-10--10--10--10-10--10--10---|-10-10--10--10---8----8----8---|
Gb|-11-11--11--11--11-11--11--11---|-11-11--11--11--10---10---10---|   
Db|-12-12--12--12--12-12--12--12---|-12-12--12--12--10---10---10---|  
Ab|--------------------------------|-------------------------------|
Db|--------------------------------|-------------------------------|
  |
  | Gtr 3
eb|-2h3-3--2h3-3---2h3-3--2h3-3----|-2h3-3--2h3-3------------------|
Bb|-3---3--3---3---3---3--3---3----|-3---3--3---3---6----6----6----|
Gb|-2---2--2---2---2---2--2---2----|-2---2--2---2------------------|
Db|-0---0--0---0---0---0--0---0----|-0---0--0---0---3----3----3----| 
Ab|--------------------------------|-------------------------------|
Db|--------------------------------|-------------------------------|


    Gtr 2
eb|-3-3---3---3---3-3---3---3---|--8--8---8---8---10-10--10--10---|
Bb|-3-3---3---3---3-3---3---3---|--8--8---8---8---10-10--10--10---|
Gb|-5-5---5---5---5-5---5---5---|-10-10--10--10---11-11--11--11---|
Db|-3-3---3---3---3-3---3---3---|-10-10--10--10---12-12--12--12---|
Ab|-----------------------------|---------------------------------|
Db|-----------------------------|---------------------------------|
  |
  | Gtr 3
eb|-----------------------------|-------------------------------|
Bb|-----------------------------|-------------------------------|
Gb|-5-5---5---5---5-5---5---5---|-9-9---9---9---10-10--10--10---|
Db|-----------------------------|-------------------------------|
Ab|-3-3---3---3---3-3---3---3---|-7-7---7---7----8--8---8---8---|
Db|-----------------------------|-------------------------------|
  "Tomorrow is contingent on the tolerance of every heart"

 
    Gtr 2
eb|-10-10--10--10--10-10--10--10---|-10-10--10--10----------------|
Bb|-10-10--10--10--10-10--10--10---|-10-10--10--10----------------|
Gb|-11-11--11--11--11-11--11--11---|-11-11--11--11----------------|   
Db|-12-12--12--12--12-12--12--12---|-12-12--12--12----------------|
Ab|--------------------------------|------------------------------|
Db|--------------------------------|------------------------------|
  |
  | Gtr 3
eb|--------------------------------|-------------------------------|
Bb|--------------------------------|-------------------------------|
Gb|-10-10---10---10-10-10---10--10-|-10-10--10--10-----------------|
Db|--------------------------------|-------------------------------| 
Ab|-8--8----8----8--8--8----8---8--|-8--8---8---8-------------0----|
Db|--------------------------------|----------------3----2---------|




[Chorus 2]

    Guitar 2
     C#                            Esus2                 
eb|------------------------------|---------------------------------|
Bb|--7-7---7---7---7-7---7---7---|--8--8---8---8----8--8---8---8---|
Gb|--7-7---7---7---7-7---7---7---|-10-10--10--10---10-10--10--10---|
Db|--7-7---7---7---7-7---7---7---|-10-10--10--10---10-10--10--10---|
Ab|--5-5---5---5---5-5---5---5---|--8--8---8---8----8--8---8---8---|
Db|------------------------------|---------------------------------|
  |
  | Guitar 3
eb|------------------------------|---------------------------------|
Bb|------------------------------|---------------------------------|
Gb|------------------------------|---------------------------------|
Db|--0-0---0---0---0-0---0---0---|--3--3---3---3----3--3---3---3---|
Ab|--0-0---0---0---0-0---0---0---|--3--3---3---3----3--3---3---3---|
Db|--0-0---0---0---0-0---0---0---|--3--3---3---3----3--3---3---3---|
    "Twilight                        Where do we    go?   Time is 
   
     B                                  A              G#
eb|---------8---8----------8---8---|----6---6---6------5---5---5---|
Bb|--8--8---8---8---8--8---8---8---|----6---6---6------5---5---5---|
Gb|--9--9---9---9---9--9---9---9---|----7---7---7------6---6---6---|
Db|-10-10--10--10--10-10--10--10---|----8---8---8------7---7---7---|
Ab|--------------------------------|-------------------------------|
Db|--------------------------------|-------------------------------|
  |
  | Guitar 3
eb|--------------------------------|-------------------------------|
Bb|--------------------------------|-------------------------------|
Gb|--------------------------------|-------------------------------|
Db|-10-10--10--10--10-10--10--10---|----8---8---8------7---7---7---|
Ab|-10-10--10--10--10-10--10--10---|----8---8---8------7---7---7---|
Db|-10-10--10--10--10-10--10--10---|----8---8---8------7---7---7---|
   "running                            out.                   We" 
  
 
    Guitar 2
eb|------------------------------|---------------------------------|
Bb|--7-7---7---7---7-7---7---7---|--8--8---8---8----8--8---8---8---|
Gb|--7-7---7---7---7-7---7---7---|-10-10--10--10---10-10--10--10---|
Db|--7-7---7---7---7-7---7---7---|-10-10--10--10---10-10--10--10---|
Ab|--5-5---5---5---5-5---5---5---|--8--8---8---8----8--8---8---8---|
Db|------------------------------|---------------------------------|
  |
  | Guitar 3
eb|------------------------------|---------------------------------|
Bb|------------------------------|---------------------------------|
Gb|------------------------------|---------------------------------|
Db|--0-0---0---0---0-0---0---0---|--3--3---3---3----3--3---3---3---|
Ab|--0-0---0---0---0-0---0---0---|--3--3---3---3----3--3---3---3---|
Db|--0-0---0---0---0-0---0---0---|--3--3---3---3----3--3---3---3---|
    "can't         fight               Hope for a future worth"

    Guitar 2
eb|-----------------8--8---8---8---|-6-6---6---6------------------|
Bb|--8--8---8---8---8--8---8---8---|-6-6---6---6-----------------|
Gb|--9--9---9---9---9--9---9---9---|-7-7---7---7------------------|
Db|-10-10--10--10--10-10--10--10---|-8-8---8---8------------------|
Ab|--------------------------------|-----------------------------|
Db|--------------------------------|-----------------------------|
  |
  | Guitar 3
eb|--------------------------------|-----------------------------|
Bb|--------------------------------|-----------------------------|
Gb|--------------------------------|-----------------------------|
Db|-10-10--10--10--10-10--10--10---|-8-----8---8---7-----7---7---|
Ab|-10-10--10--10--10-10--10--10---|-8-----8---8---7-----7---7---|
Db|-10-10--10--10--10-10--10--10---|-8-----8---8---7-----7---7---|
    "saving                          now    when     you"


eb|-----------------------------|---------------------------|
Bb|-----------------------------|---------------------------|
Gb|-----------------------------|---------------------------|
Db|-0--------0---0----0----0----|--0------------------------|
Ab|-3--------3---3----3----3----|--3------------------------|
Db|-3--------3---3----3----3----|--2------------------------|
   "show us the  way  we  should  go?"





[Bridge Part 1]
    guitar 2 holds out the low string note, gtr 3 plays the repeating notes
eb|---------------------------|------------------------------|
Bb|---------------------------|------------------------------|
Gb|---9---10-9-7---9---10-9-7-|---9---10-9-7---9-10-12-10-9--|
Db|-0-0-0--0-0-0-0-0-0--0-0-0-|-0-0-0--0-0-0-0-0--0--0--0-0--|  play 2x
Ab|---------------------------|------------------------------|
Db|-0-------------------------|------------------------------|


[Bridge Part 2]    
   Played 2x, first time no lyrics

    gtr 3
eb|---------------------------|------------------------------|
Bb|---------------------------|------------------------------|
Gb|---9---10-9-7---9---10-9-7-|---9---10-9-7---9-10-12-10-9--|
Db|-0-0-0--0-0-0-0-0-0--0-0-0-|-0-0-0--0-0-0-0-0--0--0--0-0--|
Ab|---------------------------|------------------------------|
Db|-0-------------------------|------------------------------|
  |
  | gtr 2
eb|--1------------------------|--0---------------------------|
Bb|---------------------------|------------------------------|
Gb|---------------------------|------------------------------|
Db|---------------------------|------------------------------|
Ab|--1------------------------|------------------------------|
Db|---------------------------|--2---------------------------|
    "I looked at the sky,        praying for time"
 
    gtr 3
eb|---------------------------|-----------------------------------|
Bb|---------------------------|-----------------------------------|
Gb|---9---10-9-7---9---10-9-7-|---11-12-14-12-11---11-12-14-12-11-|
Db|-0-0-0--0-0-0-0-0-0--0-0-0-|-0--0--0--0--0--0-0--0--0--0--0--0-|
Ab|---------------------------|-----------------------------------|
Db|-0-------------------------|-----------------------------------|
  |
  | gtr 2
eb|--3------------------------|--2--------------------------------|
Bb|---------------------------|-----------------------------------|
Gb|---------------------------|-----------------------------------|
Db|---------------------------|-----------------------------------|
Ab|--3------------------------|-----------------------------------|
Db|---------------------------|--0--------------------------------|
    "Hoping for   what hasn't  come"

    gtr 3
eb|---------------------------|-------------------------------|
Bb|---------------------------|-------------------------------|
Gb|---9---10-9-7---9---10-9-7-|---9-10-12-10-9---9-10-12-10-9-|
Db|-0-0-0--0-0-0-0-0-0--0-0-0-|-0-0--0--0--0-0-0-0--0--0--0-0-|
Ab|---------------------------|-------------------------------|
Db|---------------------------|-------------------------------|
  |
  | gtr 2
eb|--1------------------------|--5---------------3------------|
Bb|---------------------------|-------------------------------|
Gb|---------------------------|-------------------------------|
Db|---------------------------|-------------------------------|
Ab|--1------------------------|-------------------------------|
Db|---------------------------|--3---------------2------------|
  "The dream's still alive but the nightmare just won't come undone"

    gtr 3
eb|-----------------------------------|----------------------------------|
Bb|-----------------------------------|----------------------------------|
Gb|---11-12-14-12-11---11-12-14-12-11-|---11-12-14-12-11--12---12---12---|
Db|-0--0--0--0--0--0-0--0--0--0--0--0-|-0--0--0--0--0--0---0----0----0---|
Ab|-----------------------------------|----------------------------------|
Db|-0---------------------------------|----------------------------------|
  |
  | gtr 2
eb|--2--------------------------------|----------------------------------|
Bb|-----------------------------------|----------------------------------|
Gb|-----------------------------------|----------------------------------|
Db|-----------------------------------|----------------------------------|
Ab|-----------------------------------|----------------------------------|
Db|--0--------------------------------|----------------------------------|



[Bridge Ending]
eb|-----------------------|---------------------------|-----------------------|
Bb|----3---3--3-3---------|---------------------------|----5---5--5-5---------|
Gb|----3---3--3-3---------|-2------2--2--2--------2---|----5---5--5-5---------|
Db|----3---3--3-3---------|-3------3--3--3--------3---|----5---5--5-5---------|
Ab|----1---1--1-1---------|-3------3--3--3--------3---|----3---3--3-3---------|
Db|-----------------------|-3------3--3--3--------3---|-----------------------|
    "The tyrants will rage, there's no time to waste    There's no telling what will" 

eb|----------------------------|------------------------|-----------------------------|
Bb|-7------7--7--7------7--7---|----3---3--3-3----------|-----------------------------|
Gb|-7------7--7--7------7--7---|----3---3--3-3----------|--2------2------0------0-----|
Db|-7------7--7--7------7--7---|----3---3--3-3----------|--3------3------2------2-----|
Ab|-5------5--5--5------5--5---|----1---1--1-1----------|--3------3------2------2-----|
Db|-0------0--0--0------0--0---|------------------------|--3------3------2------2-----|
   "become                         If we don't sustain   some hope from tomorrow, we'll" 

eb|-2----2----2-2-2-2----2----2-2-2--|
Bb|-3----3----3-3-3-3----3----3-3-3--|
Gb|-2----2----2-2-2-2----2----2-2-2--|  <- play this bar 2x
Db|-0----0----0-0-0-0----0----0-0-0--|
Ab|----------------------------------|
Db|----------------------------------|
   "learn"



[Guitar Solo Rhythm Track]
eb|--------------------------------|---------------------------------|
Bb|--------------------------------|---------------------------------|
Gb|-10---10---10-10-10---10--10-10-|-5----5----5--5--5----5----5--5--|
Db|-8----8----8--8--8----8---8--8--|-3----3----3--3--3----3----3--3--|
Ab|-8----8----8--8--8----8---8--8--|-3----3----3--3--3----3----3--3--|
Db|-8----8----8--8--8----8---8--8--|-3----3----3--3--3----3----3--3--|

eb|--------------------------------|--------------------------------|
Bb|-5----5----5--5--5----5----5--5-|-7----7----7--7--7----7----7--7-|
Gb|-5----5----5--5--5----5----5--5-|-7----7----7--7--7----7----7--7-|
Db|-5----5----5--5--5----5----5--5-|-7----7----7--7--7----7----7--7-|
Ab|-3----3----3--3--3----3----3--3-|-5----5----5--5--5----5----5--5-|
Db|--------------------------------|--------------------------------|

eb|--------------------------------|---------------------------------|
Bb|--------------------------------|---------------------------------|
Gb|-10---10---10-10-10---10--10-10-|-12---12---12-12-12---12--12-12--|
Db|-8----8----8--8--8----8---8--8--|-10---10---10-10-10---10--10-10--|
Ab|-8----8----8--8--8----8---8--8--|-10---10---10-10-10---10--10-10--|
Db|-8----8----8--8--8----8---8--8--|-10---10---10-10-10---10--10-10--|

eb|---------------------------------|---------------------------------|
Bb|---------------------------------|---------------------------------|
Gb|-14---14---14-14-14---14--14-14--|-14---14---14-14-14---14--14-14--|
Db|-12---12---12-12-12---12--12-12--|-12---12---12-12-12---12--12-12--|
Ab|-12---12---12-12-12---12--12-12--|-12---12---12-12-12---12--12-12--|
Db|-12---12---12-12-12---12--12-12--|-12---12---12-12-12---12--12-12--|

eb|--------------------------------|---------------------------------|
Bb|--------------------------------|---------------------------------|
Gb|-10---10---10-10-10---10--10-10-|-5----5----5--5--5----5----5--5--|
Db|-8----8----8--8--8----8---8--8--|-3----3----3--3--3----3----3--3--|
Ab|-8----8----8--8--8----8---8--8--|-3----3----3--3--3----3----3--3--|
Db|-8----8----8--8--8----8---8--8--|-3----3----3--3--3----3----3--3--|

eb|--------------------------------|--------------------------------|
Bb|-5----5----5--5--5----5----5--5-|-7----7----7--7--7----7----7--7-|
Gb|-5----5----5--5--5----5----5--5-|-7----7----7--7--7----7----7--7-|
Db|-5----5----5--5--5----5----5--5-|-7----7----7--7--7----7----7--7-|
Ab|-3----3----3--3--3----3----3--3-|-5----5----5--5--5----5----5--5-|
Db|--------------------------------|--------------------------------|

eb|--------------------------------|---------------------------------|
Bb|--------------------------------|--8----8----8--8-----------------|
Gb|-10---10---10-10-10---10--10-10-|-10---10---10-10--9----9---9--9--|
Db|-8----8----8--8--8----8---8--8--|-10---10---10-10-10---10--10-10--|
Ab|-8----8----8--8--8----8---8--8--|--8----8----8--8-10---10--10-10--|
Db|-8----8----8--8--8----8---8--8--|---------------------------------|



[Solo Break]
    2 guitars
eb|-------------------------|-------------------------|
Bb|-------------------------|-------------------------|
Gb|-------------------------|-------------------------|
Db|-------------------------|-------------------5-----|
Ab|-5-5-7-8-7-5-5-5-7-8-7-5-|-5-5-7-8-7-5-5-7-8---8-7-|
Db|-------------------------|-------------------------|

   splits into two parts
eb|-------------------------|---------------------------|
Bb|-------------------------|---------------------------|
Gb|-3-3-5-7-5-3-3-3-5-7-5-3-|---------------------------|
Db|-5-5-7-8-7-5-5-5-7-8-7-5-|---------------------------|
Ab|-------------------------|---3-5---5-7----7-8---8-10-|
Db|-------------------------|---7-8---8-10---7-8---8-10-|



[Final Chorus]

    Guitar 2
     C#                            Esus2                 
eb|------------------------------|---------------------------------|
Bb|--7-7---7---7---7-7---7---7---|--8--8---8---8----8--8---8---8---|
Gb|--7-7---7---7---7-7---7---7---|-10-10--10--10---10-10--10--10---|
Db|--7-7---7---7---7-7---7---7---|-10-10--10--10---10-10--10--10---|
Ab|--5-5---5---5---5-5---5---5---|--8--8---8---8----8--8---8---8---|
Db|------------------------------|---------------------------------|
  |
  | Guitar 3
eb|------------------------------|---------------------------------|
Bb|------------------------------|---------------------------------|
Gb|------------------------------|---------------------------------|
Db|------------------------------|--3--3---3---3----3--3---3---3---|
Ab|------------------------------|--3--3---3---3----3--3---3---3---|
Db|------------------------------|--3--3---3---3----3--3---3---3---|
    "Twilight                        Where do we    go?   Time is 
   
     B                              A
eb|---------8---8----------8---8---|----6---6---6------5---5---5---|
Bb|--8--8---8---8---8--8---8---8---|----6---6---6------5---5---5---|
Gb|--9--9---9---9---9--9---9---9---|----7---7---7------6---6---6---|
Db|-10-10--10--10--10-10--10--10---|----8---8---8------7---7---7---|
Ab|--------------------------------|-------------------------------|
Db|--------------------------------|-------------------------------|
  |
  | Guitar 3
eb|--------------------------------|-------------------------------|
Bb|--------------------------------|-------------------------------|
Gb|--------------------------------|-------------------------------|
Db|-10-10--10--10--10-10--10--10---|----8---8---8------7---7---7---|
Ab|-10-10--10--10--10-10--10--10---|----8---8---8------7---7---7---|
Db|-10-10--10--10--10-10--10--10---|----8---8---8------7---7---7---|
   "running                            out.                   We" 
  
 
    Guitar 2
eb|------------------------------|---------------------------------|
Bb|--7-7---7---7---7-7---7---7---|--8--8---8---8----8--8---8---8---|
Gb|--7-7---7---7---7-7---7---7---|-10-10--10--10---10-10--10--10---|
Db|--7-7---7---7---7-7---7---7---|-10-10--10--10---10-10--10--10---|
Ab|--5-5---5---5---5-5---5---5---|--8--8---8---8----8--8---8---8---|
Db|------------------------------|---------------------------------|
  |
  | Guitar 3
eb|------------------------------|---------------------------------|
Bb|------------------------------|---------------------------------|
Gb|------------------------------|---------------------------------|
Db|--0-0---0---0---0-0---0---0---|--3--3---3---3----3--3---3---3---|
Ab|--0-0---0---0---0-0---0---0---|--3--3---3---3----3--3---3---3---|
Db|--0-0---0---0---0-0---0---0---|--3--3---3---3----3--3---3---3---|
    "can't         fight               Hope for a future worth"

    Guitar 2
eb|-----------------8--8---8---8---|-6-6---6---6----8-----8---8--|
Bb|--8--8---8---8---8--8---8---8---|-6-6---6---6----8-----8---8--|
Gb|--9--9---9---9---9--9---9---9---|-7-7---7---7----9-----9---9--|
Db|-10-10--10--10--10-10--10--10---|-8-8---8---8---10----10--10--|
Ab|--------------------------------|-----------------------------|
Db|--------------------------------|-----------------------------|
  |
  | Guitar 3
eb|--------------------------------|-----------------------------|
Bb|--------------------------------|-----------------------------|
Gb|--------------------------------|-----------------------------|
Db|-10-10--10--10--10-10--10--10---|-8-----8---8---10----10--10--|
Ab|-10-10--10--10--10-10--10--10---|-8-----8---8---10----10--10--|
Db|-10-10--10--10--10-10--10--10---|-8-----8---8---10----10--10--|
    "saving                          now"

    Guitar 2
     C#                            Esus2                 
eb|------------------------------|---------------------------------|
Bb|--7-7---7---7---7-7---7---7---|--8--8---8---8----8--8---8---8---|
Gb|--7-7---7---7---7-7---7---7---|-10-10--10--10---10-10--10--10---|
Db|--7-7---7---7---7-7---7---7---|-10-10--10--10---10-10--10--10---|
Ab|--5-5---5---5---5-5---5---5---|--8--8---8---8----8--8---8---8---|
Db|------------------------------|---------------------------------|
  |
  | Guitar 3
eb|------------------------------|---------------------------------|
Bb|------------------------------|---------------------------------|
Gb|------------------------------|---------------------------------|
Db|--0-0---0---0---0-0---0---0---|--3--3---3---3----3--3---3---3---|
Ab|--0-0---0---0---0-0---0---0---|--3--3---3---3----3--3---3---3---|
Db|--0-0---0---0---0-0---0---0---|--3--3---3---3----3--3---3---3---|
    "Twilight                        Where do we    go?   Time is 
   
     B                              A
eb|---------8---8----------8---8---|----6---6---6------5---5---5---|
Bb|--8--8---8---8---8--8---8---8---|----6---6---6------5---5---5---|
Gb|--9--9---9---9---9--9---9---9---|----7---7---7------6---6---6---|
Db|-10-10--10--10--10-10--10--10---|----8---8---8------7---7---7---|
Ab|--------------------------------|-------------------------------|
Db|--------------------------------|-------------------------------|
  |
  | Guitar 3
eb|--------------------------------|-------------------------------|
Bb|--------------------------------|-------------------------------|
Gb|--------------------------------|-------------------------------|
Db|-10-10--10--10--10-10--10--10---|----8---8---8------7---7---7---|
Ab|-10-10--10--10--10-10--10--10---|----8---8---8------7---7---7---|
Db|-10-10--10--10--10-10--10--10---|----8---8---8------7---7---7---|
   "running                            out.                   We" 
  
 
    Guitar 2
eb|------------------------------|---------------------------------|
Bb|--7-7---7---7---7-7---7---7---|--8--8---8---8----8--8---8---8---|
Gb|--7-7---7---7---7-7---7---7---|-10-10--10--10---10-10--10--10---|
Db|--7-7---7---7---7-7---7---7---|-10-10--10--10---10-10--10--10---|
Ab|--5-5---5---5---5-5---5---5---|--8--8---8---8----8--8---8---8---|
Db|------------------------------|---------------------------------|
  |
  | Guitar 3
eb|------------------------------|---------------------------------|
Bb|------------------------------|---------------------------------|
Gb|------------------------------|---------------------------------|
Db|--0-0---0---0---0-0---0---0---|--3--3---3---3----3--3---3---3---|
Ab|--0-0---0---0---0-0---0---0---|--3--3---3---3----3--3---3---3---|
Db|--0-0---0---0---0-0---0---0---|--3--3---3---3----3--3---3---3---|
    "can't         fight               Hope for a future worth"

    Guitar 2
eb|-----------------8--8---8---8---|-6-6---6---6------------------|
Bb|--8--8---8---8---8--8---8---8---|-6-6---6---6-----------------|
Gb|--9--9---9---9---9--9---9---9---|-7-7---7---7------------------|
Db|-10-10--10--10--10-10--10--10---|-8-8---8---8------------------|
Ab|--------------------------------|-----------------------------|
Db|--------------------------------|-----------------------------|
  |
  | Guitar 3
eb|--------------------------------|-----------------------------|
Bb|--------------------------------|-----------------------------|
Gb|--------------------------------|-----------------------------|
Db|-10-10--10--10--10-10--10--10---|-8-----8---8---7-----7---7---|
Ab|-10-10--10--10--10-10--10--10---|-8-----8---8---7-----7---7---|
Db|-10-10--10--10--10-10--10--10---|-8-----8---8---7-----7---7---|
    "saving                          now    when     you"


    both guitars
eb|-----------------------------|---------------------------|
Bb|-----------------------------|---------------------------|
Gb|-----------------------------|---------------------------|
Db|-0--------0---0----0----0----|--0------------------------|
Ab|-3--------3---3----3----3----|--3------------------------|
Db|-3--------3---3----3----3----|--2------------------------|
   "show us the  way  we  should  go?"




********************************
Key:
| /  slide up
| \  slide down
| h  hammer-on
| p  pull-off
| ~  vibrato
| +  harmonic
| x  Mute note
********************************

            
            
Suggest correction
Creating personal tab
Creating personal tab
You can edit any tab online and save it as your Personal.

You can edit, replace or remove any tab part or add personal notes – all changes will be seen only by you.

Personal tabs can be accessed anytime from any device, even offline.
Learn more »
Give kudos to tab author, rate the tab!
1 2 3 4 5
comments
print report bad tab
2 comments total.
+1 reply
jjhand 18,994 Dec 29, 2016 10:27 PM

I didn't get to the solo on this one and thought I would add a solo tab later since this was complicated with the different parts involved. Hope AB fans like it :)

0 reply
Kreuger 802 Dec 30, 2016 09:45 AM

Awesome, as always dude.

guest
You may want to rate the tab now too:
select rating
Wanna post a correction for this tab? Suggest correction