Oops, an error
Loading. Please wait.
We have an official Adult Diversion tab made by UG professional guitarists. Check out the tab »
×
by Alvvays
2,116 views 51 this week
no commentswrite comment
1 2 3 4 5
x 4
add to favorites
×
Save as Personal and add changes to this tab that will be seen only by you. Learn more ›
×
You can save this tab as Personal to edit and correct it or add notes. All changes will be seen only by you. Learn more »
launch autoscroll
font size
0
reset
how to read this tab
guitar tuner
edit
Autoscroll
slow
fast
+/-
esc
set tempo
stop
[Intro]
e|----------------------------|--------------------------------|
B|----------------------------|--------------------------------|
G|----------------------------|--------------------------------|
D|----------------------------|--------------------------------|
A|----------------------------|--------------------------------|
E|0-0-0-12\-0-0-0-0-0-0-0-0-7-|0-0-0-0-0-12\-0-0-0-0-0-0-0-0-5-|

e|----------------------------|---------------------------------|
B|----------------------------|---------------------------------|
G|----------------------------|---------------------------------|
D|----------------------------|---------------------------------|
A|----------------------------|---------------------------------|
E|0-0-0-12\-0-0-0-0-0-0-0-0-7-|0-0-0-0-0-12\-0-0-0-0-0-0-0-0-5-7|

e|---------------|----------------|--------------|----------------|
B|7-7-7-7/9------|7-7-7-7/9-------|-7-7-7-7/9----|-7-7-7-7/9-7----|
G|---------------|--------------9-|--------------|-------------9--|
D|----------9-11-|--------9-11----|---------9-11-|--------------11|
A|---------------|----------------|--------------|----------------|
E|---------------|----------------|--------------|----------------|

A      F#m              D
How do I get close to you?
Bm                A         F#m            Bm   D
Even if you don't notice as I admire you on the subway
A         F#m                 D
When it's dark outside your house
    Bm                A
You won't let anybody out
    F#m            Bm     D
And keep a padlock on the door, well
 
e|--0---0-----|--0--0-----|--0---0---|--0---0---|--0---0-----|--0---0-----|--0---0-----|
B|2---2---2/5-|5--5---5\2-|2---2---2-|0---0---0-|2---2---2/5-|5---5---5\2-|2---2---2-2-|
G|------------|-----------|----------|----------|------------|------------|------------|
D|------------|-----------|----------|----------|------------|------------|------------|
A|------------|-----------|----------|----------|------------|------------|------------|
E|------------|-----------|----------|----------|------------|------------|------------|
   one         more             cocktail         and         I'm       on    your trail

[Chorus]
e|5---4---5--|------5-4-5-|-2---2---2---0--2|-2---4--5-------|
B|-----------|-3----------|-----------------|------------2---|
G|-----------|------------|-----------------|----------------|
D|-----------|------------|-----------------|----------------|
A|-----------|------------|-----------------|----------------|
E|-----------|------------|-----------------|----------------|
  If   I  should fall        act as though it never happened

e|5---4---5--|------5-4-5-|-2---2---2---0--2|-2---4--5-------|
B|-----------|-3----------|-----------------|------------2-2-|
G|-----------|------------|-----------------|----------------|
D|-----------|------------|-----------------|----------------|
A|-----------|------------|-----------------|----------------|
E|-----------|------------|-----------------|----------------|

  I will   retreat         and sit inside so  very quietly

[Solo]
e|--0--------|--0---|2-0------|--0---|--0--------|--0---|2-0------|----------|
B|2---2-2-0-2|2---2-|----2-0--|2---2-|2---2-2-0-2|2---2-|----2-0--|2-3-2-0-2-|
G|-----------|------|--------2|------|-----------|------|--------2|----------|
D|-----------|------|---------|------|-----------|------|---------|----------|
A|-----------|------|---------|------|-----------|------|---------|----------|
E|-----------|------|---------|------|-----------|------|---------|----------|

A      F#m                D
How do I grow old with you?
Bm                A         F#m             Bm   D
Even if you don't notice as I pass by you on the sidewalk
A         F#m               D
When it's dark outside your house
    Bm                A
You won't let anybody out
       F#m                 Bm     D
You're keeping a dead girl in the closet

e|--0---0-----|--0--0-----|--0---0---|--0---0---|--0---0-----|--0---0-----|--------|
B|2---2---2/5-|5--5---5\2-|2---2---2-|0---0---0-|2---2---2/5-|5---5---5\2-|2-------|
G|------------|-----------|----------|----------|------------|------------|--------|
D|------------|-----------|----------|----------|------------|------------|--------|
A|------------|-----------|----------|----------|------------|------------|--------|
E|------------|-----------|----------|----------|------------|------------|--------|
   one         more             cocktail             is it a good time       or is it highly inappropriate

[Chorus]
e|5---4---5--|------5-4-5-|-2---2---2---0--2|-2---4--5-------|
B|-----------|-3----------|-----------------|------------2---|
G|-----------|------------|-----------------|----------------|
D|-----------|------------|-----------------|----------------|
A|-----------|------------|-----------------|----------------|
E|-----------|------------|-----------------|----------------|
  If   I  should fall        act as though it never happened

e|5---4---5--|------5-4-5-|-2---2---2---0--2|-2---4--5-------|
B|-----------|-3----------|-----------------|------------2-2-|
G|-----------|------------|-----------------|----------------|
D|-----------|------------|-----------------|----------------|
A|-----------|------------|-----------------|----------------|
E|-----------|------------|-----------------|----------------|

  I will     retreat         and go back to  university

e|5---4---5--|------5-4-5-|-2---2---2---0--2|-2---4--5-------|
B|-----------|-3----------|-----------------|------------2---|
G|-----------|------------|-----------------|----------------|
D|-----------|------------|-----------------|----------------|
A|-----------|------------|-----------------|----------------|
E|-----------|------------|-----------------|----------------|
  If   I  should fall        act as though it never happened

e|5---4---5--|------5-4-5-|-2---2---2---0--2|-2---4--5-------|
B|-----------|-3----------|-----------------|------------2-2-|
G|-----------|------------|-----------------|----------------|
D|-----------|------------|-----------------|----------------|
A|-----------|------------|-----------------|----------------|
E|-----------|------------|-----------------|----------------|

  I will   retreat         and sit inside so  very quietly

[Bridge] 
e|---------|----------|--------------|-------|
B|---------|----------|--------------|-------|
G|---------|----------|--------------|-------|
D|7-7-7-7-7|9-9-9-9-9-|11-11-11b12-11|-9-9-9-|
A|---------|----------|--------------|-------|
E|---------|----------|--------------|-------|

e|-------------------|------------------|
B|10-12-14-----------|-10-12-14---------|
G|---------11-11-9-11|----------9-9-11--|
D|-------------------|------------------|
A|-------------------|------------------|
E|-------------------|------------------|(8x)

A           D
If I should fall
                       A
Act as though it never happened
A        D
I will retreat
                       A
And sit inside so very quietly

e|5---4---5--|------5-4-5-|-2---2---2---0--2|-2---4--5-------|
B|-----------|-3----------|-----------------|------------2---|
G|-----------|------------|-----------------|----------------|
D|-----------|------------|-----------------|----------------|
A|-----------|------------|-----------------|----------------|
E|-----------|------------|-----------------|----------------|
  If   I  should fall        act as though it never happened

e|5---4---5--|------5-4-5-|-2---2---2---0--2|-2---4--5-------|
B|-----------|-3----------|-----------------|------------2-2-|
G|-----------|------------|-----------------|----------------|
D|-----------|------------|-----------------|----------------|
A|-----------|------------|-----------------|----------------|
E|-----------|------------|-----------------|----------------|

  I will   retreat         and then go back to university

[Solo/Outro]
e|--0--------|--0---|2-0------|--0---|--0--------|--0---|2-0------|----------|
B|2---2-2-0-2|2---2-|----2-0--|2---2-|2---2-2-0-2|2---2-|----2-0--|2-3-2-0-2-|
G|-----------|------|--------2|------|-----------|------|--------2|----------|(2x)
D|-----------|------|---------|------|-----------|------|---------|----------|
A|-----------|------|---------|------|-----------|------|---------|----------|
E|-----------|------|---------|------|-----------|------|---------|----------|


************************************

| \  Slide down
| /  Slide up
| b  Bend

************************************

            
            
Suggest correction
Creating personal tab
Creating personal tab
You can edit any tab online and save it as your Personal.

You can edit, replace or remove any tab part or add personal notes – all changes will be seen only by you.

Personal tabs can be accessed anytime from any device, even offline.
Learn more »
comments
print report bad tab
guest
You may want to rate the tab now too:
select rating
Wanna post a correction for this tab? Suggest correction