Oops, an error
Loading. Please wait.
We have an official Party Police tab made by UG professional guitarists. Check out the tab »
×
by Alvvays
676 views 6 this week
2 commentsread comments
1 2 3 4 5
x 5
add to favorites
×
Save as Personal and add changes to this tab that will be seen only by you. Learn more ›
×
You can save this tab as Personal to edit and correct it or add notes. All changes will be seen only by you. Learn more »
launch autoscroll
font size
0
reset
how to read this tab
guitar tuner
edit
Autoscroll
slow
fast
+/-
esc
set tempo
stop
Author
Difficulty
Tabbed by: Jomander

Tuning: Standard

Intro

Lead Guitar:

e|--2-4-2-4--|--5-------5-4--|--(4)----5-4-2-0--|--2-----0---------|
B|-----------|----2-2-2------|------2-----------|----2-2---3-2-p0--|
G|-----------|---------------|------------------|----------------2-|
D|-----------|---------------|------------------|------------------|
A|-----------|---------------|------------------|------------------|
E|-----------|---------------|------------------|------------------|


e|--2-4-2-4--|--5-------5-4--|--(4)----5-4-2-0--|--2-----0---------|
B|-----------|----2-2-2------|------2-----------|----2-2---3-2-p0--|
G|-----------|---------------|------------------|----------------2-|
D|-----------|---------------|------------------|------------------|
A|-----------|---------------|------------------|------------------|
E|-----------|---------------|------------------|------------------| x2


This tab is similar to the one done by markiiitu but with the end of the last bar slightly different but 
more accurate, I believe. 

            
            
Suggest correction
Creating personal tab
Creating personal tab
You can edit any tab online and save it as your Personal.

You can edit, replace or remove any tab part or add personal notes – all changes will be seen only by you.

Personal tabs can be accessed anytime from any device, even offline.
Learn more »
comments
print report bad tab
2 comments total.
+1 reply
skeletonne 10 Feb 01, 2016 02:32 PM

e|--2-4-2-4--|--5-------5-4--|--(4)----5-4-2-0--|--2-----0---------|
B|-----------|----2-2-2------|------2-----------|----2-2---3-2-p0--|
G|-----------|---------------|------------------|----------------4-|
D|-----------|---------------|------------------|------------------|
A|-----------|---------------|------------------|------------------|
E|-----------|---------------|------------------|------------------| x2

The last note should be a 4 not a 2, but otherwise good.

+2 reply
neonflannel 465 Nov 05, 2016 07:24 PM

e|--2-4-2-4--|--5-------5-4--|--(4)----5-4-2-0--|--2-----0---------|
B|-----------|----2-2-2------|------2-----------|----2-2---3-2-p0--|
G|-----------|---------------|------------------|------------------|
D|-----------|---------------|------------------|-----------------4|
A|-----------|---------------|------------------|------------------|
E|-----------|---------------|------------------|------------------| x2
You were right about landing on the 4, but play along and it lands on the
D string 4. Its defiantly not the G string 4.

guest
You may want to rate the tab now too:
select rating
Wanna post a correction for this tab? Suggest correction