Oops, an error
Loading. Please wait.

On The Ride tab

version 1
version 1

Whole song

Interactive

4,640 views 1 this week
1 commentread comment
1 2 3 4 5
x 3
add to favorites
×
Save as Personal and add changes to this tab that will be seen only by you. Learn more ›
×
You can save this tab as Personal to edit and correct it or add notes. All changes will be seen only by you. Learn more »
launch autoscroll
font size
0
reset
how to read this tab
guitar tuner
edit
Autoscroll
slow
fast
+/-
esc
set tempo
stop
Aly And Aj
On The Ride
On The Rush
2005 Hollywood Records
Tabbed by: paramore_fans@yahoo.com

Tuning: Standard EADGBe on both Aly and Aj
/ - slide up
\ - slide down
h - hammer
p - pull off
* - harmonics
x - palm mute (located at the bottom of the bar corresponding the notes)


Intro: C#m-A9-B9-E-B/D# (x2)

Aly:
e|-----------------------0--4--2-------12*-------12*------|
B|-----------------------0--0--0------------12*-------12*-|
G|-13--13--13\11-9--2--2----------------------------------|
D|--x---x---x--x-x--2--2----------------------------------| (x2)
A|-11--11--11\-9-7--0--0----------------------------------|
E|--------------------------------------------------------|
    x               x  x

Aj:
e|----------------------------------------------|
B|----------------------2-----------------------|
G|-6---------9--2----2--2-4-----4/9--9--9--8--8-|
D|-6---------9--2----2----4-----4/9--9--9--9--9-| (x2)
A|-4--4------7--0--0------2---2-2/7--7--7--6--6-|
E|-------4/7----------------2-------------------|
   x  x         x  x      x x


Verse 1:

Aly: will enter at 0:26
e|-12*-----2--0---------2--0--------2--0--------2--0-|
B|------0-----------0------------0--------0--4-------|
G|---------------1------------2----------------------|
D|---------------------------------------------------|
A|---------------------------------------------------|
E|---------------------------------------------------|

Aj:
e|-------------------0------------0--0-----------0-|
B|-------------------0------------0--0-----------0-|
G|-------6--4--------1h2p1--------2-----------4--4-|
D|-------6-----------2------2--2--2-----4--4--4--4-| (x3)
A|-4--4--4-----2--2--2------0--0--0-----2--2--2--2-|
E|-------------0--0--0-----------------------------|
   x  x        x  x         x  x        x  x


Making it worthwile...

Aly:
e|-0-----5*-|-----5*-----4--0-----5*-|
B|----0-----|-5*------0--------4--0--|
G|----------|------------------------|
D|----------|------------------------|
A|----------|------------------------|
E|----------|------------------------|
 x2 this bar

Aj:
e|-------2--2--------0--0---4---------0h2------0--0--0--0-|
B|-------2--2--------0----0---0-------0---0-4--0--0--0--0-|
G|-------2--2--2--2-------------4--4--4--------4--4--4--4-|
D|-4--4--4-----2--2-------------4--4--4--------4--4--4--4-|
A|-4--4--4-----0--0-------------2--2--2--------2--2--2--2-|
E|-2--2--2------------------------------------------------|
   x  x        x  x             x  x


Chorus:

Aly:
e|-0---0---2---0---|------------|
B|---0---0---0---0-|------------|
G|-----------------|-9--9--9--9-|
D|-----------------|-x--x--x--x-| (x4)
A|-----------------|-7--7--7--7-|
E|-----------------|------------|
    x7 this bar

Aj:
e|-0--0--0--0--0--0--0--0--0--0--0--0--4--4--2--2-|
B|-0--0--0--0--0--0--0--0--0--0--0--0--5--5--4--4-|
G|-2--2--2--2--1--1--1--1--4--4--4--4--6--6--4--4-|
D|-2--2--2--2--2--2--2--2--4--4--4--4--6--6--4--4-| (x4)
A|-0--0--0--0--2--2--2--2--2--2--2--2--4--4--2--2-|
E|-------------0--0--0--0-------------------------|


The view is so clear...

Aly:
e|-------0-----------0---------|
B|----------0-----------0------|
G|-----------------------------|
D|-4--4--------6--6--------7---|
A|-4--4--------7--7--------7---|
E|-2--2--------4--4--------5---|

Aj:
e|-------2--2------------------|
B|-------2--2------------------|
G|-------2--2--------4--4------|
D|-4--4--4--4--6--6--6--6--7---|
A|-4--4--4--4--7--7--------7---|
E|-2--2--2--2--4--4--------5---|


(Repeat Intro but once only)


Verse 2:

Aly:
e|-0-----2--0------2--0------2--0------2--0-|
B|----0---------0---------0---------0-------|
G|------------------------------------------|
D|------------------------------------------|
A|------------------------------------------|
E|------------------------------------------|

Aj:
e|-------------------0------------0--0-----------0-|
B|-------------------0------------0--0-----------0-|
G|-------6--4--------1h2p1--------2-----------4--4-|
D|-------6-----------2------2--2--2-----4--4--4--4-| (x3)
A|-4--4--4-----2--2--2------0--0--0-----2--2--2--2-|
E|-------------0--0--0-----------------------------|
   x  x        x  x         x  x        x  x


Making it worthwile...

Aly:
e|----7*--12*----------------------------|
B|-0-----------12*-----------------------|
G|-------------------9--8--9--11--9--8---|
D|-------------------------------------9-|
A|---------------------------------------|
E|---------------------------------------|


Aj:
e|-------2--2--------0--0---4---------0h2------0--0--0--0-|
B|-------2--2--------0----0---0-------0---0-4--0--0--0--0-|
G|-------2--2--2--2-------------4--4--4--------4--4--4--4-|
D|-4--4--4-----2--2-------------4--4--4--------4--4--4--4-|
A|-4--4--4-----0--0-------------2--2--2--------2--2--2--2-|
E|-2--2--2------------------------------------------------|
   x  x        x  x             x  x


(Repeat Chorus)

Guitar 3:
e|-----14---14--14-----|
B|-12-------12--12--12-|
G|----------13--13-----|
D|---------------------| (x2)
A|---------------------|
E|---------------------|

Aly:
e|--0---0-----0-------|
B|--------4-----------|
G|----4-----4----4--1-|
D|--------------------| (x20)
A|--------------------|
E|--------------------|

Aj:
e|-------------------------2--0--2--0--5*------5*-----|
B|-------------------------0--0--0--0------5*------5*-|
G|-4--4--4--4--6--6--6--6--2--2--2--2-----------------|
D|-4--4--4--4--6--6--6--6--2--2--2--2-----------------| (x2)
A|-2--2--2--2--4--4--4--4--0--0--0--0-----------------|
E|----------------------------------------------------|
then
e|-------------------------0--0--0--0--4*--5*--7*--5*-|
B|-------------------------0--0--0--0-----------------|
G|-4--4--4--4--6--6--6--6--2--2--2--2-----------------|
D|-4--4--4--4--6--6--6--6--2--2--2--2-----------------| (x2)
A|-2--2--2--2--4--4--4--4--0--0--0--0-----------------|
E|----------------------------------------------------|
then "always together..."
e|-0--0--0--0--0---4---2-------|
B|-0--0--0--0----0---0---0-4-0-|
G|-4--4--4--4------------------|
D|-4--4--4--4------------------|
A|-2--2--2--2------------------|
E|-----------------------------|

(Repeat Chorus twice, but on 2nd turn, do only half and proceed to "life is amazing...)


The pace is so crazy, the race is so worth it, life is amazing with you on the ride

Aly:
e|-------0-----------0---------|
B|----------0-----------0------|
G|-----------------------------|
D|-4--4--------6--6--------7---|
A|-4--4--------7--7--------7---|
E|-2--2--------4--4--------5---|

Aj:
e|-------2--2------------------|
B|-------2--2------------------|
G|-------2--2--------4--4------|
D|-4--4--4--4--6--6--6--6--7---|
A|-4--4--4--4--7--7--------7---|
E|-2--2--2--2--4--4--------5---|

_________________________________________________________________________________

Lyrics:


Chords used:
C#m -  x46654
A9 -   x02200
B9 -   x24400
E -    022100
B/D# - x6444x
B -    x24442
F#m -  244222
E/G# - 4xx45x


Intro: C#m-A9-B9-E-B/D# (x2)

Verse 1:
C#m                E  A9            B9
  We don't have to try to think the same thoughts
C#m              E      A9                         B9
  We just have a way of knowing everything's gonna be OK
C#m                     E                      A9
  We laugh till we cry, read eachother's minds live with a smile
B9              F#m    A9               B9
make it all worthwhile Make it all worthwhile


Chorus:
A9       E               B9               C#m       B        A9
Life has moments hard to describe Feelin' great and feelin' alive
            E              B9               C#m-B A9     E                      B9
Never comin down from this mountain we're on      Always knowin' we're gonna be fine
        C#m       B        A9               E              B9               C#m B
Feelin' great and feelin' alive Never comin down from this mountain we're on


Post Chorus:
    F#m                       E/G#
The view is so clear and it's crazy up here
A9(hold)
Life is amazing with you on the ride


(Repeat Intro once)


Verse 3:
C#m               E   A9            B9    C#m                 E    A9               B9
  We don't wanna sleep, just wanna stay up There's so much to say, not enough hours in a day
   C#m                E                      A9
We laugh till we cry, read eachother's minds Live with a smile
B9               F#m   A9               B9
make it all worthwhile Make it all worthwhile


(Repeat Chorus and Post chorus)


Bridge: B9-C#m-A9 (x2)

   B9                   C#m
No time to be lazy, the journey is perfect
    A9
The pace is so crazy, the race is so worth it
B9                        C#m             A9
I will be with you, let's do this together
       B9
Always together


(Repeat Chorus twice, but on 2nd turn, do only half and proceed to post chorus)


Outro:
    F#m                   E/G#                A9(Hold)
The pace is so crazy, the race is so worth it Life is amazing with you on the ride

            
            
Suggest correction
Creating personal tab
Creating personal tab
You can edit any tab online and save it as your Personal.

You can edit, replace or remove any tab part or add personal notes – all changes will be seen only by you.

Personal tabs can be accessed anytime from any device, even offline.
Learn more »
Give kudos to tab author, rate the tab!
1 2 3 4 5
comments
print report bad tab
1 comment total.
0 reply
iluvjonasgurl 237 Jan 03, 2008 11:57 AM

this doesn't look like what they play in the video. but, then again, they don't always play it right there! lol. nice
job!

guest
You may want to rate the tab now too:
select rating
Wanna post a correction for this tab? Suggest correction