Oops, an error
Loading. Please wait.

On The Ride tab

version 2
version 2

Whole song

Interactive

859 views 1 this week
no commentswrite comment
1 2 3 4 5
3 more votes to show rating
add to favorites
×
Save as Personal and add changes to this tab that will be seen only by you. Learn more ›
×
You can save this tab as Personal to edit and correct it or add notes. All changes will be seen only by you. Learn more »
launch autoscroll
font size
0
reset
how to read this tab
guitar tuner
edit
Autoscroll
slow
fast
+/-
esc
set tempo
stop
Author
Difficulty
-------------------------------------------------------------------------------
                             ON THE RIDE - ALY AND A.J.
-------------------------------------------------------------------------------
Tabbed by: MIKO DEL
Email: HANGINGJUDGE in the GMAIL domain

Tuning: Std, A=440Hz
Tempo: Approx. 80 bpm

Notes:  Less obvious timings are written in.
Less obvious melodic figures are tabbed,  but some obvious incidental notes and/or 
while strumming are not -
LISTEN if you want it to be perfect.
The very last chorus has slightly more aggressive strumming,
otherwise don't get in the way of the vocal.
This is tabbed for standard tuning but can easily be played drop "D".

GUITAR 1
INTRO 0:01
      1   &  a  2  e  3  &   4  &  1  &  2

e|-----------------0---------0-----------0------------0-----0----------------|
B|--------5--4--5--0---------0-----------0------------0-----0----------------|
G|--------6--4--6------------2-----------4--------4------4-------------------|
D|--------6--4--6------------2-----------4--------2------1-------------------|
A|----4------p--h-----0--0---------2--2--------------------------------------|
E|---------------------------------------------------------------------------|

GUITAR 1
verse 1 0:14

e|---------0---------0---------0---------0-----------------------------------------|
B|---------0---------0---------0---------0-----------------------------------------|
G|---------6---------4---------2---------4-----------------------------------------|
D|---------6---------2---------2---------4-----------------------------------------|
A|---4--4------------2----0--0------2--2-------------------------------------------|
E|-------------0--0----------------------------------------------------------------|

GUITAR 1
bridge 1 - "Make it all worthwhile ..." 0:30

e|----0---0---0--------------------------------------------------------------|
B|----0---0---0--------------------------------------------------------------|
G|----2---4---4--------------------------------------------------------------|
D|----2---4---4--------------------------------------------------------------|
A|------------2--------------------------------------------------------------|
E|----2---4------------------------------------------------------------------|

GUITAR 1
chorus - "Life has moments ..."  0:37, 1:37, 2:34
sugg. strum hits:  1 & 2 & 3 & 4 &   etc.
Try strumming low, high, mid, high string groups with the above timing
   1&2& 3&4& 1&2& 3&4&    1&2& 3&4& 1&2&   3 (hold until 1)

e|---0----0----0----0-------0----0----0----0----------------------------------|
B|---0----0----0----0-------0----0----0----0----------------------------------|
G|---2----4----4----6-------2----4----4----6----------------------------------|
D|---2----2----4----6-------2----2----4----6----------------------------------|
A|---0----2----2----4-------0----2----2----4----------------------------------|
E|--------0----------------------0--------------------------------------------|

GUITAR 1
chorus 1 - "Always Knowing ..." 0:49
   1&2& 3&4& 1&2& 3&4&    1&2& 3&4& 1&2&   3

e|---0----0----0----0-------0----0----0----0----------------------------------|
B|---0----0----5----0-------0----0----0----0----------------------------------|
G|---2----4----4----6-------2----4----4----6----------------------------------|
D|---2----2----4----6-------2----2----4----6----------------------------------|
A|---0----2----2----4-------0----2----2----4----------------------------------|
E|--------0----------------------0--------------------------------------------|

GUITAR 1 & 2
"The view is so clear and it's breezy up here ..." 1:01
      1   2   3   4   1

e|--------0-------0------------------------------------------------------|
B|--------0-------0------------------------------------------------------|
G|--------2-------4------------------------------------------------------|
D|--------2-------4---2--------------------------------------------------|
A|--------------------0--------------------------------------------------|
E|----2-------4----------------------------------------------------------|

GUITAR 1  Instr. @ 2:07
  1  e  &  a  2  e  &  a  3  e  &  a  4  e  &  a  1  e  &  a  2  e  &  a

e|-----------------------------------------------------------------------|
B|---------4-----5-----------------4-----5-----------------4-----5-------|
G|---------4-----4-----------------4-----4-----------------4-----4-------|
D|-----------------------------------------------------------------------|
A|2-----------------------4-----------------------0----------------------|
E|-----------------------------------------------------------------------|

GUITAR 1  Instr. @ 2:07
  3  e  &  a  4  e  &  a  1  e  &  a  2  e  &  a

e|---------4-----5-----------------------------------------------------------|
B|---------4-----4-----------------------------------------------------------|
G|---------------------------------------------------------------------------|
D|---------------------------------------------------------------------------|
A|---------------------------------------------------------------------------|
E|---------------------------------------------------------------------------|

GUITAR 1
"Always together ..." 2:31
e|---0--------------------------------------------------------------------------|
B|---0--------------------------------------------------------------------------|
G|---4--------------------------------------------------------------------------|
D|---4--------------------------------------------------------------------------|
A|---2--------------------------------------------------------------------------|
E|------------------------------------------------------------------------------|

| /  slide up
| \  slide down
| h  hammer-on
| p  pull-off
| ~  vibrato
| +  harmonic
| x  Mute note


******************************************************************************

GUITAR 2
INTRO 0:01
      1   &  a  2  e  3  &  4  &  1

e|-----------------0---------------------------0--------0-----0------------------|
B|--------5--4--5--0-----------5--4------------0--------0-----0------------------|
G|--------6--4--6--------------6--4---4--4--4-------4------4---------------------|
D|--------6--4--6--------2-----6--4---6--4--6-------2------1---------------------|
A|----4------p--h-----0--0-----/--p------p--h------------------------------------|
E|-------------------------------------------------------------------------------|

GUITAR 2
verse 1 - "We laugh till we cry ..." 0:25
             1  &  2  &    3    4    1   2  &

e|-----------------2---------------------2-----------------------------------|
B|-----------5--------5---------------------5--------------------------------|
G|--------------4------------------------------------------------------------|
D|---------------------------------------------------------------------------|
A|---------------------------------------------------------------------------|
E|---------------------------------------------------------------------------|

GUITAR 2
bridge 1 - "Make it all worthwhile ..." 0:30
    1   &   2   &   3   &   4   &   1   &   2   &    3   &   4   &

e|--0-------------------0----------------------h2--------0---0-------------------|
B|------2-------4-----------4-------5-----------4------------2--p0---------------|
G|---------2----4---------------4---6--------------------------------------------|
D|--4-----------6----------------------------------------------------------------|
A|--------------/----------------------------------------------------------------|
E|-------------------------------------------------------------------------------|

GUITAR 2
chorus - "Life has moments ..."  0:37, 1:37, 2:34
sugg. strum hits:  1 & 2 & 3 & 4 &   etc.
Try strumming low, high, mid, high string groups with the above timing
   1&2& 3&4& 1&2& 3&4&    1&2& 3&4& 1&2&   3 (hold until 1)

e|---0----0----0----0-------0----0----0-----------------------------------|
B|---0----0----0----0-------0----0----0----5---4--5--4--------------------|
G|---2----4----4----6-------2----4----4----6---4--6--4--------------------|
D|---2----2----4----6-------2----2----4----6------h--p--------------------|
A|---0----2----2----4-------0----2----2----/------------------------------|
E|--------0----------------------0----------------------------------------|

GUITAR 2
Chorus 1 - "Always knowing ..."0:49           3   &  4  &
e|---0----0----0----0-------0----0-------0--------0----------------------|
B|---0----0---/5----0-------0----0-------0----5---------0----------------|
G|---2----4----4----6-------2----4--6----4----6------4-------------------|
D|---2----2----4----6-------2----2--/----4----6------4-------------------|
A|---0----2----2----4-------0----2-------2----/--------------------------|
E|--------0----------------------0---------------------------------------|

GUITAR 1 & 2
"The view is so clear and it's breezy up here ..." 1:01
      1   2   3   4   1

e|--------0-------0------------------------------------------------------|
B|--------0-------0------------------------------------------------------|
G|--------2-------4------------------------------------------------------|
D|--------2-------4---2--------------------------------------------------|
A|--------------------0--------------------------------------------------|
E|----2-------4----------------------------------------------------------|

GUITAR 2
verse 2 - "We don't want to sleep ..." 1:13
             1  &  2  &    3    4    1   2  &

e|-----------------2---------------------2-----------------------------------|
B|-----------5--------5---------------------5--------------------------------|
G|--------------4------------------------------------------------------------|
D|---------------------------------------------------------------------------|
A|---------------------------------------------------------------------------|
E|---------------------------------------------------------------------------|

GUITAR 2
verse 1 - "Make it all worthwhile ..." 1:30
    1   &   2   &   3   &   4   &   1   &   2   &   3   &   4   &

e|--0-------------------0-----------4-------2-------4---2---0----------------|
B|------2-------4-----------4-------5-------4-------5---4---2---0------------|
G|---------2----4---------------4--------------------------------------------|
D|--4-----------6------------------------------------------------------------|
A|--------------/------------------------------------------------------------|
E|---------------------------------------------------------------------------|

GUITAR 2  Instr. @ 2:07
  4  e  &  a  1  e  &  a  2  e  &  a  3  e  &  a  4  e  &  a

e|---------------------12---------------------------------------------------|
B|------------0------- + ----12---------------------------------------------|
G|------------4------------- + ---------------------------------------------|
D|--------------------------------------------------------------------------|
A|------------2--2----------------------------------------------------------|
E|--------------------------------------------------------------------------|

GUITAR 2
              1  e  &  a  2  e  &  a  3  e  &  a  4  e  &  a

e|------------4--------12----------------------------------------------------|
B|------------4--5--0---+----12----------------------------------------------|
G|------------4--6------------+----------------------------------------------|
D|---------------h-----------------------------------------------------------|
A|---------------------------------------------------------------------------|
E|---------------------------------------------------------------------------|

GUITAR 2
  "No time to be lazy, the journey's so perfect..." 2:19

e|---------------------------------------------------------------------------|
B|---------------------------------------------------------------------------|
G|----4----6----2------------------------------------------------------------|
D|---------------------------------------------------------------------------|
A|----2----4----0------------------------------------------------------------|
E|---------/----\------------------------------------------------------------|

GUITAR 2
"Always together ..." 2:31
    1   &   2   &    3   &   4   &

e|--4-------2--------0-------0-----------------------------------------------|
B|--5-------4--------2-------0-----------------------------------------------|
G|---------------------------------------------------------------------------|
D|---------------------------------------------------------------------------|
A|---------------------------------------------------------------------------|
E|---------------------------------------------------------------------------|

| /  slide up
| \  slide down
| h  hammer-on
| p  pull-off
| ~  vibrato
| +  harmonic
| x  Mute note
===============================================================================

            
            
Suggest correction
Creating personal tab
Creating personal tab
You can edit any tab online and save it as your Personal.

You can edit, replace or remove any tab part or add personal notes – all changes will be seen only by you.

Personal tabs can be accessed anytime from any device, even offline.
Learn more »
Give kudos to tab author, rate the tab!
1 2 3 4 5
comments
print report bad tab
guest
You may want to rate the tab now too:
select rating
Wanna post a correction for this tab? Suggest correction