Oops, an error
Loading. Please wait.

Deceiver intro tab

version 1
version 1

Intro

Interactive

1,956 views 1 this week
2 commentsread comments
1 2 3 4 5
3 more votes to show rating
add to favorites
×
Save as Personal and add changes to this tab that will be seen only by you. Learn more ›
×
You can save this tab as Personal to edit and correct it or add notes. All changes will be seen only by you. Learn more »
launch autoscroll
font size
0
reset
how to read this tab
guitar tuner
edit
Autoscroll
slow
fast
+/-
esc
set tempo
stop
Song:   Deceiver
Album:  Atonement
Band:   Amarna Reign
Tuning: Drop B
Tabbed by: Cj Crovo

Relearned it differently, sounds ten times better. 

Guitar 1
C#|----------------------------------------15-------------|
G#|----15----15-17----15-17-18----15-17-18----18-17-15-14-|
E |-14----14-------14----------14-------------------------|
B |-------------------------------------------------------|
F#|-------------------------------------------------------|
B |-------------------------------------------------------|
                                                            (all x4)
C#|----17-18-15-17----------------------------------------|
G#|-15-------------18-17-18-17-15-14-------17-18----------|
E |----------------------------------15-14-------15-------|
B |-------------------------------------------------------|
F#|-------------------------------------------------------|
B |-------------------------------------------------------|

Guitar 2
C#|---------------------------------------------------------------|
G#|---------------------------------------------------------------|
E |---------------------------------------------------------------|
B |---------------------------------------------------------------|
F#|-0-0-000-0-00-000-000-0-00000-0-00-0-0-000-000-0-0-000---------|
B |-0-0-000-0-00-000-000-0-00000-0-00-0-0-000-000-0-0-000-[snare]-|
    . . ... . .. ... ... . ..... . .. . . ... ... . . ...
Breakdown was way more confusing than I previously thought.

            
            
Suggest correction
Creating personal tab
Creating personal tab
You can edit any tab online and save it as your Personal.

You can edit, replace or remove any tab part or add personal notes – all changes will be seen only by you.

Personal tabs can be accessed anytime from any device, even offline.
Learn more »
Give kudos to tab author, rate the tab!
1 2 3 4 5
comments
print report bad tab
2 comments total.
0 reply
Crovo717 96 Nov 24, 2009 08:09 AM

Guitar 1
|------------------------------------------16-------------|
|-----16----16-18----16-18-19----16-18-19-----19-18-16-15-|
|--15----15-------15----------15--------------------------|
|---------------------------------------------------------|
|---------------------------------------------------------|
|---------------------------------------------------------|

-1 reply
Factor13x 480 Mar 24, 2010 08:08 PM

hey man i think your lead part is slightly off the other version seems to be right there but your rhythms good

guest
You may want to rate the tab now too:
select rating
Wanna post a correction for this tab? Suggest correction