Oops, an error
Loading. Please wait.

It Might Be You tab

version 3
version 3

Whole song

44,776 views 9 this week
12 commentsread comments
1 2 3 4 5
x 15
add to favorites
×
Save as Personal and add changes to this tab that will be seen only by you. Learn more ›
×
You can save this tab as Personal to edit and correct it or add notes. All changes will be seen only by you. Learn more »
launch autoscroll
font size
0
reset
how to read this tab
guitar tuner
edit
Autoscroll
slow
fast
+/-
esc
set tempo
stop
Hi guyz, this is Stephen Obbus of Sogod, Southern Leyte tabbing the song it might be you
the ambassadors. I looked for tabs of this song but unfortunately, I cudnt find a tab
 close… They all suCK, about 3 worlds away from the song… Damn!!! So I decided to make
I want to thank Kulot, my bandmate, for his idea shared to me… hehehe!!! And hi to my
wife Nikki Louise Acuòa (parang antanda ko na, hey im stil 16 u know!!!).. Love you sooo
Sorry for wat had happened!!! Huhuhuhu!!! Para sayo ito!!! For comments and
u can txt this #s 09268955888 and 09183865859!!! Also email me or add me in ur 
rhen_steph@yaho.com!!! Tnx, hope u lyk it guys!!! Pls rate nlng din… Tnx again!!:p

Legends
h-hammer
p-pull off
s-slide
~-let it ring

Tuning: Drop-D

Intro (Part 1)

Clean

Guitar 1

e---3-3-5-7-3--3-3-5-7-3---3-3-5-7-3----3-3-3h5-3-----3---|
B----3----------3-----------3--------------------3h5------|
G---------------------------------------------------------|
D-------------------------------------0-------------------|
A-------------2-----------3-------------------------------|
D-5-------------------------------------------------------|

Guitar 2 (blends)

e--2-3---2-3--2-3—--3s5-5-5s8-5-3--|
B------3-----3----3----------------|
G----------------------------------|
D----------------------------------|
A----------------------------------|
D----------------------------------|

Intro (part 2)

Heavily Distorted

Guitar 1

e---------------------------------------------------|
B---------------------------------------------------|
G----0-2-4-0-4-0-2-4-4s7-5-0-2-4-0-7-0-0h2-0----0---|
D-5---0------4--0--------5--0------7--0------0h2----|
A-5----------2-----------3---------5----------------|
D-5-------------------------------------------------|

Guitar 2

e---------------------|
B---------------------|
G------4~---5~---7~---|
D-5~---4~---5~---7~---|
A-5~---2~---3~---5~---|
D-5~------------------|

Intro (Fast part)

Guitar 1

e------------------------------------------------------------|
B-----------------------------------------7h8-7--------------|
G--7-5-4h5---7-5-4h5-7----4-5--7-5-4h5----------7h9-7-7-5----|
D----------5-----------5-7-------------5---------------------|
A------------------------------------------------------------|
D------------------------------------------------------------|
(continue)
e-------------3-5-3-2-3-5-3-5-5s7-5-3-3h5-3-5-5s7-5-3~---|
B--------------------------------------------------------|
G-4-5-7-4-4-5--------------------------------------------|
D--------------------------------------------------------|
A--------------------------------------------------------|
D--------------------------------------------------------|

Guitar 2

e--------------|
B--------------|
G----4--5--7---|
D-5--4--5--7---|
A-5--2--3--5---|
D-5------------|
(then continue with the blending)
e-3-2-3-3-3--|------------|
B------------|-------3~---|
G------------|3xthen------|
D------------|------------|
A------------|------------|
D------------|------------|

Verse 1

Guitar 2 first

e-------|
B-------|
G-------|
D-5-5---|8x
A-5-5---|
D-5-5---|
  X X

Then Guitars 1 and 2:

e------------------------|
B------------------------|
G-55555555---77777777----|
D-55555555---77777777----|
A-33333333---55555555----|
D------------------------|

e------------------------|
B------------------------|
G--------7~---------7~---|
D-5-5-5-----5-5-5-5------|2x
A-5-5-5-----5-5-5-5------|
D-5-5-5-----5-5-5-5------|

e------------------------|
B------------------------|
G-55555555---99999999----|
D-55555555---77777777----|
A-33333333---77777777----|
D------------77777777----|

Refrain

Bass first

G----------------------------------|
D----------------------------------|
A—5~--------------6~---------7~----|
D----------------------------------|
  There would be…

Guitar 1

e--7-------|
B---6------|
G-----4----|
D----------|not so sure bout this 1
A----------|
D----------|

Chorus

e-------------------------------|
B-------------------------------|
G------5-----5--7-7-7-----------|
D--5-5-5-5-5-5--7-7-7-9-7-5-7---|
A--3-3-3-3-3-3--5-5-5-----------|
D-------------------------------|
   X X   X X
e-----------------------|
B-----------------------|
G------5-----5--77777---|
D--5-5-5-5-5-5--77777---|
A--3-3-3-3-3-3--55555---|
D-----------------------|
   X X   X X

Guitar 2
e-----------------------|
B-----------------------|
G------5-----5--77777---|
D--5-5-5-5-5-5--77777---|2x
A--3-3-3-3-3-3--55555---|
D-----------------------|
   X X   X X

Verse 2

Guitar 1

Sorry if it’s a lil complicated but it sure is accurate, just listen to the song for
timing!!!:)

e-----------------------------------------------|
B-----------------------------------------------|
G-12s-14s-16s-12s-16s-14s-55555555-7s9s7s-5s4---|
D--xs--xs--xs--xs--xs--xs-xxxxxxxx-xsxsxs-xsx---|
A-10s-12s-14s-10s-14s-12s-33333333-5s7s5s-3s2---|
D-----------------------------------------------|
(continue)
e-------------------------------------|
B-------------------------------------|
G-121212s-11s12s-77777777---9-9-9-9---|
D—-x-x-xs-xs—-xs-xxxxxxxx---7-7-7-7---|
A—101010s-9s-10s-55555555---7-7-7-7---|
D---------------------------7-7-7-7---|

Guitar 2

e--------------------------------|
B--------------------------------|
G-77777777--55555555--77777777---|
D-55555555--55555555--77777777---|
A-55555555--33333333--55555555---|
D-55555555-----------------------|

e--------------------------------|
B--------------------------------|
G-77777777--55555555-99999999----|
D-55555555--55555555-77777777----|
A-55555555--33333333-77777777----|
D-55555555-----------77777777----|

Refrain

Guitars 1 and 2

e------------------------------|
B------------------------------|
G-77777777-88888888-99999999---|
D-77777777-88888888-99999999---|
A—55555555-66666666-77777777---|
D------------------------------|

Chorus

Guitars 1 and 2

e--------------------------|
B--------------------------|
G-555555555------7-----7---|
D-555555555--7-7-7-7-7-7---|
A-333333333--5-5-5-5-5-5---|
D--------------------------|
             X X   X X

e----------------------|
B----------------------|
G-55555555--77777777---|
D-55555555--77777777---|2x
A-33333333--55555555---|
D----------------------|

Bridge

Guitars 1 and 2

e---------------------------------------|
B---------------------------------------|
G-77777777-77777777-44444444-55555555---|
D-55555555-77777777-44444444-55555555---|2x
A-55555555-55555555-22222222-33333333---|
D-55555555------------------------------|

Solo (part 1)

Guitar 1

e-----------------------------------|
B-----------------------------------|
G-----7-7---7-7----7-7-9-5-4-2-0-0--|
D-4-5----4-5----4-5-----------------|
A-----------------------------------|
D-----------------------------------|
(continue)
e--------------------------------------------|
B--------------------------------------------|
G----7-7-7s9-7---7-7-7s9-7---7-7-9-5-4-2-0---|
D-4-5---------4-5---------4-5----------------|
A--------------------------------------------|
D--------------------------------------------|

Guitar 2

e----------------------------------------|
B----------------------------------------|
G-77777777-44444444-55555555-77777777----|
D-55555555-44444444-55555555-77777777----|2x
A-55555555-22222222-33333333-55555555----|
D-55555555-------------------------------|

Solo (part 2)
Guitar 1

e------------------------------------|
B------------------------------------|
G-4-5-4--4-5-5s7-4-5-4-4-5-5s9-7-5-4-|
D------------------------------------|
A------------------------------------|
D------------------------------------|
(continue)
e-----------------------------------------------------------|
B-----------------------------------------------------------|
G-4-4h5-4-4h5-4-4-4h5-4-4h5-4-4-4h5-4-4h5-4-5s7-5-4-2-0--0--|
D-------------------------------------------------------4---|
A-----------------------------------------------------------|
D-----------------------------------------------------------|

Guitar 2

e--------------------------------|
B--------------------------------|
G-------4-4-4-5-5-5-7-7-7--------|
D-5-5-5-4-4-4-5-5-5-7-7-7-7-7-7--|
A-5-5-5-2-2-2-3-3-3-5-5-5--------|
D-5-5-5--------------------------|
(continue)
e--------------------------------------------------------|
B--------------------------------------------------------|
G-------------4-4-4---------5-5-5----------7-7-7---------|
D-5-5-5-5-5-5-4-4-4-5-4-4h5-5-5-5-5-4-4h5--7-7-7-5-4-5~--|
A-5-5-5-------2-2-2---------3-3-3----------5-5-5---------|
D-5-5-5--------------------------------------------------|

Outro (part 1)

Guitar 1

e-3-3-5-5s7-3-3-3-5-5s7-3-3-3-5-5s7-3-3-3-5-5s7-3---|
B--3-----------3-----------3-----------3------------|
G------------4-----------5-----------7--------------|
D---------------------------------------------------|
A---------------------------------------------------|
D---------------------------------------------------|

Guitar 2

e--------------------------------|
B--------------------------------|
G—4~---5~----7~------------------|
D--------------------------------|
A--------------------------------|
D--------------------------------|

Outro (part 2)

Guitar 1


e--3-3-5-7-7s10-10101010-10s12-1010-101010-8-7-7h8-7—7h8-7-----8-7~--|
B---3-----------------------------------------------10----10-8-8-8~--|
G-0------------------------------------------------------------------|
D--------------------------------------------------------------------|
A--------------------------------------------------------------------|
D--------------------------------------------------------------------|

Guitar 2 (blending)

e-2-3-2-3-3s10-10-2-3-2-3-3s10-10-2-3-2-3-3s10-10-10s12-8-7-5-3-3~---|
B---------------------------------------------------------------3~---|
G--------------------------------------------------------------------|
D--------------------------------------------------------------------|
A--------------------------------------------------------------------|
D--------------------------------------------------------------------|

Huh!!! And hirap nito ahhh!!! Grrrrrrrrrrr!!! hahaha!!! Pls rate po, TNX!!!Just listen
the whole song for proper timing!!!:)

            
            
Suggest correction
Creating personal tab
Creating personal tab
You can edit any tab online and save it as your Personal.

You can edit, replace or remove any tab part or add personal notes – all changes will be seen only by you.

Personal tabs can be accessed anytime from any device, even offline.
Learn more »
comments
print report bad tab
12 comments total. Showing first comments.
0 reply
DesuTchIanX 31 May 29, 2007 09:02 AM

astig pre... tae ung dalawang tab... inde kuh maxadong makuha un... khit sabihin ng mga friends kuh mas madali raw un... skin baliktad... mas madali ung sau kesa ung dalawa... idol... TnX!

0 reply
stephradz_cheri 165 May 30, 2007 02:12 PM

Ahhh... Tnx!!! mas madali nga ung sakin!!! check mo nlng ibang tabs ko baka magustuhan mo!!! Rock on!!!\m/

0 reply
SayDie123 10 Aug 19, 2007 05:59 AM

thnx dude! ayos tong tab na to ^^ 5*

guest
You may want to rate the tab now too:
select rating
Wanna post a correction for this tab? Suggest correction