Oops, an error
Loading. Please wait.

Everything We Were Has Become What We Are tab

version 2
version 2

Whole song

Interactive

639 views 1 this week
no commentswrite comment
1 2 3 4 5
x 3
add to favorites
×
Save as Personal and add changes to this tab that will be seen only by you. Learn more ›
×
You can save this tab as Personal to edit and correct it or add notes. All changes will be seen only by you. Learn more »
launch autoscroll
font size
0
reset
how to read this tab
guitar tuner
edit
Autoscroll
slow
fast
+/-
esc
set tempo
stop
This is technically two tabs. They are both a mixture of lead and rhythm so 
you can play the whole song with only one guitar. If you want to play with both
guitars, you can split up the intro and bridge, etc. between the guitars however 
you decide. TAB ONE is more rhythm guitar, and TAB TWO is more lead.

-Tabbed by Kyle Hawkins.

Title: Everything We Were Has Become What We Are
Artist: Amber Pacific
Album: The Possibility And The Promise
Year: 2005

**Tuning for both guitars: Drop D, then down half a step**

			
			**TAB ONE**:

Intro: (x2)
Eb|-----------------------------------------------------|
Bb|-----------------------------------------------------|
Gb|-----4p0-----------------------4p0-------------------|
Db|-222----5p0-4p0-5p0-7p0-4--222----5p0-4p0-5p0-7p0-4--|
Ab|-222-----------------------222-----------------------|
Db|-222-----------------------222-----------------------|

Eb|-----------------------------------------------------|
Bb|-----4p0-----------------------4p0-------------------|
Gb|-555----5p0-4p0-5p0-7p0-4--777-----5p0-9p0-7p0-5p0-7-|
Db|-555-----------------------777-----------------------|
Ab|-333-----------------------555-----------------------|
Db|-----------------------------------------------------|

Pre-Verse: (x1)
Eb|----------|
Bb|----------|
Gb|----------|
Db|-22-22--0-|
Ab|-22-22--0-|
Db|-22-22--0-|
    .. ..

Verse 1: (x2)
Eb|----------------------------------------------------|
Bb|----------------------------------------------------|
Gb|------------------5555555555555555-7777777777777777-|
Db|-2222222222222222-5555555555555555-7777777777777777-|
Ab|-2222222222222222-3333333333333333-5555555555555555-|
Db|-2222222222222222-----------------------------------|

Eb|---------------------|
Bb|---------------------|
Gb|---------------------|
Db|-55555555-44444h5p4/-|
Ab|-55555555-44444h5p4/-|
Db|-55555555-44444h5p4/-|

Pre-Chorus: (x1)
Eb|-----------------------------------|
Bb|-----------------------------------|
Gb|-----------55---77-----------------|
Db|-22---22---55---77----222--(4h5p4)-|
Ab|-22---22---33---55----222--(4h5p4)-|
Db|-22---22--------------222--(4h5p4)-|

Chorus: (x1)
Eb|----------------------------------------------------|
Bb|----------------------------------------------------|
Gb|------------------5555555555555555-7777777777777777-|
Db|-2222222222222222-5555555555555555-7777777777777777-|
Ab|-2222222222222222-3333333333333333-5555555555555555-|
Db|-2222222222222222-----------------------------------|

Eb|---------------------|
Bb|---------------------|
Gb|---------------------|
Db|-55555555-44444h5p4/-|
Ab|-55555555-44444h5p4/-|
Db|-55555555-44444h5p4/-|

Eb|----------------------------------------------------|
Bb|----------------------------------------------------|
Gb|------------------5555555555555555-7777777777777777-|
Db|-2222222222222222-5555555555555555-7777777777777777-|
Ab|-2222222222222222-3333333333333333-5555555555555555-|
Db|-2222222222222222-----------------------------------|

Eb|------------------------------------------------|
Bb|------------------------------------------------|
Gb|-----------------------4p0----------------------|
Db|-555-555-444-4h5p4--222---5p0-4p0-5p0-7p0-4-222-|
Ab|-555-555-444-4h5p4--222---------------------222-|
Db|-555-555-444-4h5p4--222---------------------222-|
    ..  ..  ..

Verse 2: (palm mute, x2)
Eb|----------------------------------------------------|
Bb|----------------------------------------------------|
Gb|------------------5555555555555555-7777777777777777-|
Db|-2222222222222222-5555555555555555-7777777777777777-|
Ab|-2222222222222222-3333333333333333-5555555555555555-|
Db|-2222222222222222-----------------------------------|
    ................ ................ ................

Eb|---------------------|
Bb|---------------------|
Gb|---------------------|
Db|-55555555-44444h5p4/-|
Ab|-55555555-44444h5p4/-|
Db|-55555555-44444h5p4/-|
    ........ .........

Pre-Chorus: (x1)
Eb|-----------------------------------|
Bb|-----------------------------------|
Gb|-----------55---77-----------------|
Db|-22---22---55---77----222--(4h5p4)-|
Ab|-22---22---33---55----222--(4h5p4)-|
Db|-22---22--------------222--(4h5p4)-|

Chorus: (x1)
Eb|----------------------------------------------------|
Bb|----------------------------------------------------|
Gb|------------------5555555555555555-7777777777777777-|
Db|-2222222222222222-5555555555555555-7777777777777777-|
Ab|-2222222222222222-3333333333333333-5555555555555555-|
Db|-2222222222222222-----------------------------------|

Eb|---------------------|
Bb|---------------------|
Gb|---------------------|
Db|-55555555-44444h5p4/-|
Ab|-55555555-44444h5p4/-|
Db|-55555555-44444h5p4/-|

Eb|----------------------------------------------------|
Bb|----------------------------------------------------|
Gb|------------------5555555555555555-7777777777777777-|
Db|-2222222222222222-5555555555555555-7777777777777777-|
Ab|-2222222222222222-3333333333333333-5555555555555555-|
Db|-2222222222222222-----------------------------------|

Eb|-----------------|
Bb|-----------------|
Gb|-----------------|
Db|-555-555-444-445-|
Ab|-555-555-444-445-|
Db|-555-555-444-445-|
    ..  ..  ..  ..

Bridge: (x1) listen to the song to get the strumming right
Eb|---------------------------------------|
Bb|---------------------------------------|
Gb|-----5-7-----5-7-----4p0---------------|
Db|-5-2-5-7-5-2-5-7--222---5p0-4p0-5p0-7*-|
Ab|-5-2-3-5-5-2-3-5--222------------------|
Db|-5-2-----5-2------222------------------|

**for the harmonic on 7*, do the 5 pulloff and just touch the metal
fret divider on the side of the seventh fret closest to your strumming hand**

Outro/Chorus: (x1)
Eb|----------------------------------------------------|
Bb|----------------------------------------------------|
Gb|------------------5555555555555555-7777777777777777-|
Db|-2222222222222222-5555555555555555-7777777777777777-|
Ab|-2222222222222222-3333333333333333-5555555555555555-|
Db|-2222222222222222-----------------------------------|

Eb|---------------------|
Bb|---------------------|
Gb|---------------------|
Db|-55555555-44444h5p4/-|
Ab|-55555555-44444h5p4/-|
Db|-55555555-44444h5p4/-|

Eb|----------------------------------------------------|
Bb|----------------------------------------------------|
Gb|------------------5555555555555555-7777777777777777-|
Db|-2222222222222222-5555555555555555-7777777777777777-|
Ab|-2222222222222222-3333333333333333-5555555555555555-|
Db|-2222222222222222-----------------------------------|

Eb|------------------------------------------------|
Bb|------------------------------------------------|
Gb|-----------------------4p0----------------------|
Db|-555-555-444-4h5p4--222---5p0-4p0-5p0-7p0-4-222-|
Ab|-555-555-444-4h5p4--222---------------------222-|
Db|-555-555-444-4h5p4--222---------------------222-|
    ..  ..  ..







			**TAB TWO**:

Intro: (x2)
Eb|-----------------------------------------------------|
Bb|-----------------------------------------------------|
Gb|-----4p0-----------------------4p0-------------------|
Db|-222----5p0-4p0-5p0-7p0-4--222----5p0-4p0-5p0-7p0-4--|
Ab|-222-----------------------222-----------------------|
Db|-222-----------------------222-----------------------|

Eb|-----------------------------------------------------|
Bb|-----4p0-----------------------4p0-------------------|
Gb|-555----5p0-4p0-5p0-7p0-4--777-----5p0-9p0-7p0-5p0-7-|
Db|-555-----------------------777-----------------------|
Ab|-333-----------------------555-----------------------|
Db|-----------------------------------------------------|

Pre-Verse: (x1)
Eb|----------|
Bb|----------|
Gb|----------|
Db|-22-22--0-|
Ab|-22-22--0-|
Db|-22-22--0-|
    .. ..

Verse 1: (x2)
Eb|-----------------------------------
Bb|-----------------------------------
Gb|-9999999999999999-7777777777777777-
Db|-xxxxxxxxxxxxxxxx-xxxxxxxxxxxxxxxx-
Ab|-7777777777777777-5555555555555555-
Db|-----------------------------------

**those are elevens, not ones**
Eb|----------------------------------
Bb|----------------------------------
Gb|-11111111111111111111111111111111-
Db|--x-x-x-x-x-x-x-x-x-x-x-x-x-x-x-x-
Ab|--9-9-9-9-9-9-9-9-9-9-9-9-9-9-9-9-
Db|----------------------------------

Eb|------------------------------------|
Bb|------------------------------------|
Gb|-1212121212121212-11111111-11/12/11-|
Db|-x-x-x-x-x-x-x-x---x-x-x-x--x/-x/-x-|
Ab|-1010101010101010--9-9-9-9--9/10/-9-|
Db|------------------------------------|

Pre-Chorus: (x1)
Eb|----------------------------------|
Bb|----------------------------------|
Gb|-12121212121212121212121212121212-| x3
Db|--x-x-x-x-x-x-x-x-x-x-x-x-x-x-x-x-|
Ab|-10101010101010101010101010101010-|
Db|----------------------------------|

Eb|---------------------|
Bb|---------------------|
Gb|-111111111111111111~-|
Db|--x-x-x-x-x-x-x-x-x~-|
Ab|--9-9-9-9-9-9-9-9-9~-|
Db|---------------------|

**this next little part is with a wah pedal, if you don't have one you can
 just bend the strings being played, but it won't sound as good.**
Eb|-----------------|
Bb|-----------------|
Gb|-999999999999999-|
Db|-xxxxxxxxxxxxxxx-|
Ab|-777777777777777-|
Db|-----------------|

Chorus:
Eb|-------------------------------------------------------
Bb|-------------------------------------------------------
Gb|-99999999-11111111-12121212-77777777-11111111-12121212-
Db|-xxxxxxxx--x-x-x-x--x-x-x-x-xxxxxxxx--x-x-x-x--x-x-x-x-
Ab|-77777777--9-9-9-9-10101010-55555555--9-9-9-9-10101010-
Db|-------------------------------------------------------

Eb|------------------------------------
Bb|------------------------------------
Gb|-1111111111111111-12121212-14141414-
Db|--x-x-x-x-x-x-x-x--x-x-x-x--x-x-x-x-
Ab|--9-9-9-9-9-9-9-9-10101010-12121212-
Db|------------------------------------

Eb|------------------------------------
Bb|------------------------------------
Gb|-1212121212121212-11111111-11/12/11-
Db|--x-x-x-x-x-x-x-x--x-x-x-x--x/-x/-x-
Ab|-1010101010101010--9-9-9-9--9/10/-9-
Db|------------------------------------

Eb|-------------------------------------------------------
Bb|-------------------------------------------------------
Gb|-99999999-11111111-12121212-77777777-11111111-12121212-
Db|-xxxxxxxx--x-x-x-x--x-x-x-x-xxxxxxxx--x-x-x-x--x-x-x-x-
Ab|-77777777--9-9-9-9-10101010-55555555--9-9-9-9-10101010-
Db|-------------------------------------------------------

Eb|-------------------------------------------------------|
Bb|-------------------------------------------------------|
Gb|-1111111111111111-12121212-14141414--------------------|
Db|--x-x-x-x-x-x-x-x--x-x-x-x--x-x-x-x--555-555-444-4h5p4-|
Ab|--9-9-9-9-9-9-9-9-10101010-12121212--555-555-444-4h5p4-|
Db|-------------------------------------555-555-444-4h5p4-|
                                        ..  ..  ..
Eb|-------------------------|
Bb|-------------------------|
Gb|----4p0------------------|
Db|-222---5p0-4p0-5p0-7p0-4-|
Ab|-222---------------------|
Db|-222---------------------|

Verse 2:
Eb|-----------------|
Bb|-----------------|
Gb|-----------------| **repeat this until the words "you've crossed every line...",
Db|-7p0h5p0h4p0h5p0-|   then switch to next riff and repeat that one until pre-chorus.
Ab|-----------------|
Db|-----------------|

Eb|----------------|
Bb|----------------|
Gb|-4p0------------|
Db|----5p0h4p0h5p0-|
Ab|----------------|
Db|----------------|

Pre-Chorus: (x1)
Eb|----------------------------------|
Bb|----------------------------------|
Gb|-12121212121212121212121212121212-| x3
Db|--x-x-x-x-x-x-x-x-x-x-x-x-x-x-x-x-|
Ab|-10101010101010101010101010101010-|
Db|----------------------------------|

Eb|---------------------|
Bb|---------------------|
Gb|-111111111111111111~-|
Db|--x-x-x-x-x-x-x-x-x~-|
Ab|--9-9-9-9-9-9-9-9-9~-|
Db|---------------------|

**this next little part is with a wah pedal, if you don't have one you can
 just bend the strings being played, but it won't sound as good.**
Eb|-----------------|
Bb|-----------------|
Gb|-999999999999999-|
Db|-xxxxxxxxxxxxxxx-|
Ab|-777777777777777-|
Db|-----------------|

Chorus:
Eb|-------------------------------------------------------
Bb|-------------------------------------------------------
Gb|-99999999-11111111-12121212-77777777-11111111-12121212-
Db|-xxxxxxxx--x-x-x-x--x-x-x-x-xxxxxxxx--x-x-x-x--x-x-x-x-
Ab|-77777777--9-9-9-9-10101010-55555555--9-9-9-9-10101010-
Db|-------------------------------------------------------

Eb|------------------------------------
Bb|------------------------------------
Gb|-1111111111111111-12121212-14141414-
Db|--x-x-x-x-x-x-x-x--x-x-x-x--x-x-x-x-
Ab|--9-9-9-9-9-9-9-9-10101010-12121212-
Db|------------------------------------

Eb|------------------------------------
Bb|------------------------------------
Gb|-1212121212121212-11111111-11/12/11-
Db|--x-x-x-x-x-x-x-x--x-x-x-x--x/-x/-x-
Ab|-1010101010101010--9-9-9-9--9/10/-9-
Db|------------------------------------

Eb|-------------------------------------------------------
Bb|-------------------------------------------------------
Gb|-99999999-11111111-12121212-77777777-11111111-12121212-
Db|-xxxxxxxx--x-x-x-x--x-x-x-x-xxxxxxxx--x-x-x-x--x-x-x-x-
Ab|-77777777--9-9-9-9-10101010-55555555--9-9-9-9-10101010-
Db|-------------------------------------------------------

Eb|-----------------------------------------------------|
Bb|-----------------------------------------------------|
Gb|-1111111111111111-12121212-14141414------------------|
Db|--x-x-x-x-x-x-x-x--x-x-x-x--x-x-x-x--555-555-444-445-|
Ab|--9-9-9-9-9-9-9-9-10101010-12121212--555-555-444-445-|
Db|-------------------------------------555-555-444-445-|
                                        ..  ..  ..  ..

Bridge: (x1) listen to the song to get the strumming right
Eb|---------------------------------------|
Bb|---------------------------------------|
Gb|-----5-7-----5-7-----4p0---------------|
Db|-5-2-5-7-5-2-5-7--222---5p0-4p0-5p0-7*-|
Ab|-5-2-3-5-5-2-3-5--222------------------|
Db|-5-2-----5-2------222------------------|

**for the harmonic on 7*, do the 5 pulloff and just touch the metal
fret divider on the side of the seventh fret closest to your strumming hand**

Outro/Chorus:
Eb|-------------------------------------------------------
Bb|-------------------------------------------------------
Gb|-99999999-11111111-12121212-77777777-11111111-12121212-
Db|-xxxxxxxx--x-x-x-x--x-x-x-x-xxxxxxxx--x-x-x-x--x-x-x-x-
Ab|-77777777--9-9-9-9-10101010-55555555--9-9-9-9-10101010-
Db|-------------------------------------------------------

Eb|------------------------------------
Bb|------------------------------------
Gb|-1111111111111111-12121212-14141414-
Db|--x-x-x-x-x-x-x-x--x-x-x-x--x-x-x-x-
Ab|--9-9-9-9-9-9-9-9-10101010-12121212-
Db|------------------------------------

Eb|------------------------------------
Bb|------------------------------------
Gb|-1212121212121212-11111111-11/12/11-
Db|--x-x-x-x-x-x-x-x--x-x-x-x--x/-x/-x-
Ab|-1010101010101010--9-9-9-9--9/10/-9-
Db|------------------------------------

Eb|-------------------------------------------------------
Bb|-------------------------------------------------------
Gb|-99999999-11111111-12121212-77777777-11111111-12121212-
Db|-xxxxxxxx--x-x-x-x--x-x-x-x-xxxxxxxx--x-x-x-x--x-x-x-x-
Ab|-77777777--9-9-9-9-10101010-55555555--9-9-9-9-10101010-
Db|-------------------------------------------------------

Eb|-------------------------------------------------------|
Bb|-------------------------------------------------------|
Gb|-1111111111111111-12121212-14141414--------------------|
Db|--x-x-x-x-x-x-x-x--x-x-x-x--x-x-x-x--555-555-444-4h5p4-|
Ab|--9-9-9-9-9-9-9-9-10101010-12121212--555-555-444-4h5p4-|
Db|-------------------------------------555-555-444-4h5p4-|
                                        ..  ..  ..
Eb|-----------------------------|
Bb|-----------------------------|
Gb|----4p0----------------------|
Db|-222---5p0-4p0-5p0-7p0-4-222-|
Ab|-222---------------------222-|
Db|-222---------------------222-|

Good luck, and enjoy =]

            
            
Suggest correction
Creating personal tab
Creating personal tab
You can edit any tab online and save it as your Personal.

You can edit, replace or remove any tab part or add personal notes – all changes will be seen only by you.

Personal tabs can be accessed anytime from any device, even offline.
Learn more »
Give kudos to tab author, rate the tab!
1 2 3 4 5
comments
print report bad tab
guest
You may want to rate the tab now too:
select rating
Wanna post a correction for this tab? Suggest correction