Oops, an error
Loading. Please wait.

Thoughts Before Me bass

151 views 1 this week
no commentswrite comment
1 2 3 4 5
3 more votes to show rating
add to favorites
×
Save as Personal and add changes to this tab that will be seen only by you. Learn more ›
×
You can save this tab as Personal to edit and correct it or add notes. All changes will be seen only by you. Learn more »
launch autoscroll
font size
0
reset
guitar tuner
edit
Autoscroll
slow
fast
+/-
esc
set tempo
stop
+++++++++++++++++++++++++++++++++++++
| Amber Pacific- Thoughts Before Me |
+++++++++++++++++++++++++++++++++++++


"Staring at your reflection everyday..."

Tuning: Drop C# (C#ADG)




Intro
1.
G||------------------------------------------------------------------------|
D||------------------------------------------------------------------------|
A||-------------------00000000-0000222-------------------22222222-22222222-|--x2
C#|-00000000-00000000-----------------3-3333333-33333333-------------------|

Verse
"Its starting to get old..."
2.
G||-------------------------------------------------------------------------|
D||-------------------------------------------------------------------------|
A||-------------------------------------00000000-00000000-00000000-00000000-|
C#|-00000000-00000000-00000000-00000000-------------------------------------|

"Looking back at highschool drama..."
3.
G||-------------------------------------------------------------------------|
D||---------------------------------------------------------1h2-1h2-1h2-1h2-|
A||---------------------------------000-000-000-000-000-000-----------------|
C#|-000-000-000-000-000-000-000-000-----------------------------------------|

Pre-Chorus
"Staring at your reflection..."
4.
G||----------------------------------------------------------------------------|
D||----------------------------------------------------------------------------|
A||----------0-00000000---------2-2222222----------0-0000000-22222222-22222222-|
C#|-00x-----------------3333333-----------00x----------------------------------|

"Those tear stained eyes..."
5.
G||-------------------------------------------------------------------------|
D||-------------------------------------------------------------------------|
A||-4444444-0-0000000----------22222222-44444444-00000000-22222222-22222222-|
C#|-------------------33333333----------------------------------------------|

Chorus
"So why should I take your hand..."
6.
G||-------------------------------------------------------------------------|
D||-------------------------------------------------------------------------|
A||-------------------22222222-22222222-44444444-22222222-00000000-00000000-|--x2
C#|-33333333-33333333-------------------------------------------------------|

Outro
7.
G||------------------------------------------------------------------------|
D||------------------------------------------------------------------------|
A||-------------------00000000-0000222-------------------22222222-22222222-|
C#|-00000000-00000000-----------------3-3333333-33333333-------------------|

Verse
"There's no sense..."
8.
G||-------------------------------------------------------------------------|
D||-------------------------------------------------------------------------|
A||-------------------------------------00000000-00000000-00000000-00000000-|
C#|-00000000-00000000-00000000-00000000-------------------------------------|

"And I would walk..."
9.
G||-------------------------------------------------------------------------|
D||---------------------------------------------------------1h2-1h2-1h2-1h2-|
A||---------------------------------000-000-000-000-000-000-----------------|
C#|-000-000-000-000-000-000-000-000-----------------------------------------|

Pre-Chorus
"How can I feel alive..."
10.
G||----------------------------------------------------------------------------|
D||----------------------------------------------------------------------------|
A||----------0-00000000---------2-2222222----------0-0000000-22222222-22222222-|
C#|-00x-----------------3333333-----------00x----------------------------------|

"Those tear stained eyes..."
11.
G||-------------------------------------------------------------------------|
D||-------------------------------------------------------------------------|
A||-4444444-0-0000000----------22222222-44444444-00000000-22222222-22222222-|
C#|-------------------33333333----------------------------------------------|

Chorus
"So why should I take your hand..."
12.
G||-------------------------------------------------------------------------|
D||-------------------------------------------------------------------------|
A||-------------------22222222-22222222-44444444-22222222-00000000-00000000-|--x2
C#|-33333333-33333333-------------------------------------------------------|

Outro
13.
G||-------------------------------------------------------------------------|
D||-------------------------------------------------------------------------|
A||-------------------------------------0~---0~---0000000-0~---0~---0000000-|
C#|-0~---0~---0000000-0~---0~---0000000-------------------------------------|

14.
G||-------------------------------------------------------------------------|
D||-------------------------------------------------------------------------|
A||-------------------------------------00000000-00000000-00000000-00000000-|
C#|-00000000-00000000-00000000-00000000-------------------------------------|

Pre-Chorus
"How can I feel alive..."
15.
G||----------------------------------------------------------------------------|
D||----------------------------------------------------------------------------|
A||----------0-00000000---------2-2222222----------0-0000000-22222222-22222222-|
C#|-00x-----------------3333333-----------00x----------------------------------|

"Those tear stained eyes..."
16.
G||-------------------------------------------------------------------------|
D||-------------------------------------------------------------------------|
A||-4444444-0-0000000----------22222222-44444444-00000000-22222222-22222222-|
C#|-------------------33333333----------------------------------------------|

Chorus
"So why should I take your hand..."
17.
G||-------------------------------------------------------------------------|
D||-------------------------------------------------------------------------|
A||-------------------22222222-22222222-44444444-22222222-00000000-00000000-|--x2
C#|-33333333-33333333-------------------------------------------------------|

Outro
18.
G||-----------------------------------|
D||-----------------------------------|
A||-----------------------------------|
C#|-3~--------------------------------|


Please rate thanks!!!


Lyrics:

So why should I take your hand when you can't promise happy endings?

It's starting to get old
That story yet untold
Reflect before we walk into
What we already know
Won't be so easy
Looking back at high school drama
Didn't try to fix what we thought were problems
Done with writing empty letters
Is there no other way?

Staring at your reflection every day
Can make or break my heart away
When you won't listen to what's hard for me to say
Those tear stained eyes can make me feel so sad
And once again we're further away from what we never had

So why should I take your hand when you can't promise happy endings?
Just run away with so much left to share
It's just not enough
When we're so much more than friends
We're much too young to throw away our cares

There's no sense in regretting what's been said in our yesterdays
We can't take back what's done
But we can look ahead

And I would walk so much further just to know what I'm doing here
And there's no end to what I'd give to know just what you meant when you said
How can I feel alive when we can't help but break our backs just to survive?
Is this another time we can't control our lives?



+++++++++++++++++++++++++++++++++
| Raileff                       |
| Underground__Dora@Hotmail.Com |
+++++++++++++++++++++++++++++++++

            
            
Suggest correction
Creating personal tab
Creating personal tab
You can edit any tab online and save it as your Personal.

You can edit, replace or remove any tab part or add personal notes – all changes will be seen only by you.

Personal tabs can be accessed anytime from any device, even offline.
Learn more »
Give kudos to tab author, rate the tab!
1 2 3 4 5
comments
print report bad tab
guest
You may want to rate the tab now too:
select rating
Wanna post a correction for this tab? Suggest correction