Oops, an error
Loading. Please wait.

Video Killed The Radio Star tab

version 2
version 2

Whole song

4,142 views 1 this week
7 commentsread comments
1 2 3 4 5
1 last vote to show rating
add to favorites
×
Save as Personal and add changes to this tab that will be seen only by you. Learn more ›
×
You can save this tab as Personal to edit and correct it or add notes. All changes will be seen only by you. Learn more »
launch autoscroll
font size
0
reset
how to read this tab
guitar tuner
edit
Autoscroll
slow
fast
+/-
esc
set tempo
stop
Author
-------------------------------------------------------------------------------
                             Video Killed the Radio Star - Amber Pacific
-------------------------------------------------------------------------------
Tabbed by: Eric Andersen
Email: cheez_eric@hotmail.com

Tuning:eb Bb Gb Db Ab Db

This is my first tab. I've been working on it for a while and I think
it's right. If you have any suggestions or corrections, please email me
or leave a comment. Thanks!

Intro:

Guitar 1:
eb|---------------------------------------------------------------------------|
Bb|---------------------------------------------------------------------------|
Gb|---------------------------------------------------------------------------|
Db|-0-0-0--2-2-2-2-2--5-5-5--7-7-7-7-7----------------------------------------|x6
Ab|-0-0-0--2-2-2-2-2--5-5-5--7-7-7-7-7----------------------------------------|
Db|-0-0-0--2-2-2-2-2--5-5-5--7-7-7-7-7----------------------------------------|
    . . .  . . . . .  . . .  . . . . .
Guitar 2:
eb|---------------------------------------------------------------------------|
Bb|---------------------------------------------------------------------------|
Gb|-------------------------------------999-----------------------------------|
Db|-------------------------------------xxx-----------------------------------|x6
Ab|-------------------------------------777-----------------------------------|
Db|---------------------------------------------------------------------------|

Verse 1:

Guitar 1:

eb|---------------------------------------------------------------------------|
Bb|---------------------------------------------------------------------------|
Gb|---------------------------------------------------------------------------|
Db|-0-0-0--2-2-2-2-2--5-5-5--7-7-7-7-7----------------------------------------|x5
Ab|-0-0-0--2-2-2-2-2--5-5-5--7-7-7-7-7----------------------------------------|
Db|-0-0-0--2-2-2-2-2--5-5-5--7-7-7-7-7----------------------------------------|
    . . .  . . . . .  . . .  . . . . .

Guitar 2:
eb|---------------------------------------------------------------------------|
Bb|---------------------------------------------------------------------------|
Gb|---------------------------------------------------------------------------|
Db|---------------------(rest)------------------------------------------------|
Ab|---------------------------------------------------------------------------|
Db|---------------------------------------------------------------------------|

Chorus:

Guitar 1:
eb|---------------------------------------------------------------------------|
Bb|---------------------------------------------------------------------------|
Gb|---------------------------------------------------------------------------|
Db|--0---------------5---------------0---------------5------------------------|
Ab|--0-x8------------5-x8------------0-x8------------5-x8---------------------|
Eb|--0---------------5---------------0---------------5------------------------|

Guitar 2:
eb|---------------------------------------------------------------------------|
Bb|---------------------------------------------------------------------------|
Gb|--1111-77-1111-77-1111-77-1111-77-1111-77-1111-77-1111-77-1111-77----------|
Db|--x-x--xx-x-x--xx-x-x--xx-x-x--xx-x-x--xx-x-x--xx-x-x--xx-x-x--xx----------|
Ab|--9-9--55-9-9--55-9-9--55-9-9--55-9-9--55-9-9--55-9-9--55-9-9--55----------|
Db|---------------------------------------------------------------------------|

Guitar 1:
eb|---------------------------------------------------------------------------|
Bb|---------------------------------------------------------------------------|
Gb|---------------------------------------------------------------------------|
Db|--99-----77-----55-----5~----------99-----77-----5~------------------------|
Ab|--99-----77-----55-----5~----------99-----77-----5~------------------------|
Eb|--99-----77-----55-----5~----------99-----77-----5~------------------------|

Guitar 2:
eb|---------------------------------------------------------------------------|
Bb|---------------------------------------------------------------------------|
Gb|----19-----18-----16--14~------------19-----18---14~-----------------------|
Db|----x------x------x---x--------------x------x----x-------------------------|
Ab|----17-----16-----14--12~------------17-----16---12~-----------------------|
Db|---------------------------------------------------------------------------|

Verse 2:

Guitar 1:
eb|--------------------|   |--------------------------------------------------|
Bb|--------------------|   |--------------------------------------------------|
Gb|--------------------|   |--------------------------------------------------|
Db|--0--0-2--2-5--5-7--|   |---------7-0--0-2--2-5--5-7-----------------------|x4
Ab|--0--0-2--2-5--5-7--|x1 |---------7-0--0-2--2-5--5-7-----------------------|
Db|--0--0-2--2-5--5-7--|   |---------7-0--0-2--2-5--5-7-----------------------|

Guitar 2:
eb|---------------------------------------------------------------------------|
Bb|---------------------------------------------------------------------------|
Gb|-------------------9-9-7-9^------------------------------------------------|
Db|---------------------------------------------------------------------------|
Ab|---------------------------------------------------------------------------|
Db|---------------------------------------------------------------------------|

eb|---------------------------------------------------------------------------|
Bb|---------------------------------------------------------------------------|
Gb|--11/7/11/7/11/7/11/12/11/7/11/7/11/7/11/7/11/7/11/7/11/7/11/7/11/7--------|
Db|--x /x/x /x/ x/x/x /x /x /x/x /x/x /x/x /x/x /x/x /x/x /x/x /x/x /x--------|
Ab|--9 /5/9 /5/ 9/5/9 /10/9 /5/9 /5/9 /5/9 /5/9 /5/9 /5/9 /5/9 /5/9 /5/-------|
Db|---------------------------------------------------------------------------|

Chorus:

Guitar 1:
eb|---------------------------------------------------------------------------|
Bb|---------------------------------------------------------------------------|
Gb|---------------------------------------------------------------------------|
Db|--0---------------5---------------0---------------5------------------------|
Ab|--0-x8------------5-x8------------0-x8------------5-x8---------------------|
Eb|--0---------------5---------------0---------------5------------------------|

Guitar 2:
eb|---------------------------------------------------------------------------|
Bb|---------------------------------------------------------------------------|
Gb|--1111-77-1111-77-1111-77-1111-77-1111-77-1111-77-1111-77-1111-77----------|
Db|--x-x--xx-x-x--xx-x-x--xx-x-x--xx-x-x--xx-x-x--xx-x-x--xx-x-x--xx----------|
Ab|--9-9--55-9-9--55-9-9--55-9-9--55-9-9--55-9-9--55-9-9--55-9-9--55----------|
Db|---------------------------------------------------------------------------|

Guitar 1:
eb|---------------------------------------------------------------------------|
Bb|---------------------------------------------------------------------------|
Gb|---------------------------------------------------------------------------|
Db|--99-----77-----55-----5~----------99-----77-----5~------------------------|
Ab|--99-----77-----55-----5~----------99-----77-----5~------------------------|
Eb|--99-----77-----55-----5~----------99-----77-----5~------------------------|

Guitar 2:
eb|---------------------------------------------------------------------------|
Bb|---------------------------------------------------------------------------|
Gb|----19------18----16--14~------------19-----18--14~------------------------|
Db|----x-------x------x---x~------------x------x----x~------------------------|
Ab|----17------16----14--12~------------17-----16--12~------------------------|
Db|---------------------------------------------------------------------------|


Pre-solo:

Guitar 2:
eb|---------------------------------------------------------------------------|
Bb|---------------------------------------------------------------------------|
Gb|--9-11-7-9-6/7/6--9-11-7-9-------------------------------------------------|
Db|--x-x--x-x-x/x/x--x-x--x-x-------------------------------------------------|
Ab|--7-9--5-7-4/5/4--7-9--5-7-------------------------------------------------|
Db|---------------------------------------------------------------------------|

Solo:

eb|---------------------------------------------------------------------------|
Bb|--12--14-15-----14-15------------------------------------------------------|
Gb|------------14--------14--12p11h12~--12-11-9---------11^-----------------9^|
Db|---------------------------------------------12-9-12---- 12-9-12-9-7/9-12--|
Ab|---------------------------------------------------------------------------|
Db|---------------------------------------------------------------------------|

eb|---------------------------------------------------------------------------|
Bb|---------------------------------------------------------------------------|
Gb|-----9-10^-----------------------------------------------------------------|
Db|--12------------12~--------------------------------------------------------|
Ab|---------------------------------------------------------------------------|
Db|---------------------------------------------------------------------------|

Bridge:

Guitar 1:
eb|---------------------------------------------------------------------------|
Bb|---------------------------------------------------------------------------|
Gb|--------------------(rest)-------------------------------------------------|
Db|---------------------------------------------------------------------------|
Ab|---------------------------------------------------------------------------|
Db|---------------------------------------------------------------------------|

Guitar 2:
eb|---------------------------------------------------------------------------|
Bb|---------------------------------------------------------------------------|
Gb|--14------11------14------11-----------------------------------------------|
Db|--x--x8---x--x8---x--x8---x--x8--------------------------------------------|
Ab|--12------9-------12------9------------------------------------------------|
Db|---------------------------------------------------------------------------|

Final Chorus:


Guitar 1:
eb|---------------------------------------------------------------------------|
Bb|---------------------------------------------------------------------------|
Gb|---------------------------------------------------------------------------|
Db|--0---------------5---------------0---------------5------------------------|x2
Ab|--0-x8------------5-x8------------0-x8------------5-x8---------------------|
Eb|--0---------------5---------------0---------------5------------------------|

Guitar 2:
eb|---------------------------------------------------------------------------|
Bb|---------------------------------------------------------------------------|
Gb|--1111-77-1111-77-1111-77-1111-77-1111-77-1111-77-1111-77-1111-77----------|
Db|--x-x--xx-x-x--xx-x-x--xx-x-x--xx-x-x--xx-x-x--xx-x-x--xx-x-x--xx----------|x2
Ab|--9-9--55-9-9--55-9-9--55-9-9--55-9-9--55-9-9--55--9-9-55--9-9-55----------|
Db|---------------------------------------------------------------------------|

Outro

Guitar 1:
eb|---------------------------------------------------------------------------|
Bb|---------------------------------------------------------------------------|
Gb|---------------------------------------------------------------------------|
Db|--9--7--5~---2420---9--7--5~---2-0---9--7--5~---2420---9--7--2~------------|
Ab|--9--7--5~---2420---9--7--5~---2-0---9--7--5~---2420---9--7--2~------------|
Db|--9--7--5~---2420---9--7--5~---2-0---9--7--5~---2420---9--7--2~------------|
                ....                               ....
Guitar 2:
eb|---------------------------------------------------------------------------|
Bb|---------------------------------------------------------------------------|
Gb|--1111-99-7~-------99-1111-7~-------1111-99-7~-------1111-99-7/11~---------|
Db|--x-x--xx-x~-------xx-x-x--x~-------x-x--xx-x~-------x-x--xx-x/x ~---------|
Ab|--9-9--77-5~-------77-9-9--5~-------9-9--77-5~-------9-9--77-5/9 ~---------|
Db|---------------------------------------------------------------------------|

            
            
Suggest correction
Creating personal tab
Creating personal tab
You can edit any tab online and save it as your Personal.

You can edit, replace or remove any tab part or add personal notes – all changes will be seen only by you.

Personal tabs can be accessed anytime from any device, even offline.
Learn more »
Give kudos to tab author, rate the tab!
1 2 3 4 5
comments
print report bad tab
7 comments total. Showing first comments.
0 reply
Trey3 93 Apr 05, 2010 04:04 PM

This is a great tab. I didnt find much wrong other than little timing stuff that nobody care about. Good job man

0 reply
THE_MOLE 10 Nov 01, 2011 01:33 PM

beautiful tab but it sounds better in drop D just preference.
thanks for posting one of my favorite songs

0 reply
Suff2Say 10 Aug 25, 2014 07:37 AM, edited at 11:45 am

Uh-UHuh <shaky-shake>. No way that was your first tab dude. No way. Full stop. . !

guest
You may want to rate the tab now too:
select rating
Wanna post a correction for this tab? Suggest correction