Oops, an error
Loading. Please wait.

Yoga Means Union intro tab

version 2
version 2

Intro

1,214 views 1 this week
1 commentread comment
1 2 3 4 5
1 last vote to show rating
add to favorites
×
Save as Personal and add changes to this tab that will be seen only by you. Learn more ›
×
You can save this tab as Personal to edit and correct it or add notes. All changes will be seen only by you. Learn more »
launch autoscroll
font size
0
reset
how to read this tab
guitar tuner
edit
Autoscroll
slow
fast
+/-
esc
set tempo
stop
Difficulty
     SONG NAME - Band Name
-------------------------------------------------------------------------------
Tabbed by: Italian Stallion
Email:fa2c@hotmail.com

Tuning: STANDARD!

Here's an easier way to play the intro without having to break to tune the g
string down a half-step

Guitar 1
e|---------------------------------------------------------------------------------|
B|---------------------------------------------------------------------------------|
G|---------------------------------------------------------------------------------|
D|--4---5---7---5------------------------------------------------------------------|
A|----5---5---5---5----------------------------------------------------------------|
E|---------------------------------------------------------------------------------|

Guitar 2 [0:07]
e|---------------------------------------------------------------------------------|
B|---------------------------------------------------------------------------------|
G|---------------------------------------------------------------------------------|
D|--------4/5-4--------------------------------------------------------------------|
A|--6\5-7--------------------------------------------------------------------------|
E|---------------------------------------------------------------------------------|

Guitar 2 [0:40]
e|--------------------------------------------------------------------------------------|
B|--------------------------------------------------------------------------------------|
G|--5~~---4~~---2~~---------------------------------------------------------------------|
D|--------------------------------------------------------------------------------------|
A|--------------------------------------------------------------------------------------|
E|--------------------------------------------------------------------------------------|


| /  slide up
| \  slide down
| h  hammer-on
| p  pull-off
| ~  vibrato
| +  harmonic
| x  Mute note                                        Thanks! Enjoy!
===============================================================================

            
            
Suggest correction
Creating personal tab
Creating personal tab
You can edit any tab online and save it as your Personal.

You can edit, replace or remove any tab part or add personal notes – all changes will be seen only by you.

Personal tabs can be accessed anytime from any device, even offline.
Learn more »
Give kudos to tab author, rate the tab!
1 2 3 4 5
comments
print report bad tab
1 comment total.
0 reply
Shwax 256 Jun 14, 2011 06:38 PM

Alternatively, you could also play it like this:

e|---------------------------------------------------------------------------------|
B|---------------------------------------------------------------------------------|
G|---------------------------------------------------------------------------------|
D|-0----0----0----0----------------------------------------------------------------|
A|----9---10---12---10-------------------------------------------------------------|
E|---------------------------------------------------------------------------------|


although your way obviously works great too.

guest
Wanna post a correction for this tab? Suggest correction