Oops, an error
Loading. Please wait.

Its Life chords

by America
40 views 3 this week
1 commentread comment
1 2 3 4 5
x 3
add to favorites
×
Save as Personal and add changes to this tab that will be seen only by you. Learn more ›
×
You can save this tab as Personal to edit and correct it or add notes. All changes will be seen only by you. Learn more »
launch autoscroll
font size
0
reset
transpose
0
reset
simplify chords
display chords
guitar tuner
edit
Autoscroll
slow
fast
+/-
esc
set tempo
stop
Author
Difficulty
Strumming
There is no strumming pattern for this song yet. and get +5 IQ
Song: It's life
Artist: America
Composer: Dan Peek
Album: Hat trick

Tabbed by DJ ('DiddyD' at ultimateGuitar.com)
8th Oct 2016

 [Riff can be played instead of the D7]
    Am7      (D7)     G
    Any-thing for--- you...
e |--0--------------|
B |--1--------------|
G |--0--------------|
D |--2-----------0--|
A |--0--0--2--3-----|
E |-----------------|

N.B.
Please IGNORE ANY POP-UP CHORD BOXES the website might
automatically suggest and use the typed shapes shown below:

Asus2 = x02200   C   = x32010   B5   = x244xx   Em    = 022000
Cmaj7 = x32000   C/B = x2xxxx   D5   = x577xx   D     = xx0232
Dsus2 = xx0230   Em7 = xx2033   E5   = x799xx   Cm    = x35543
G     = xx5x33   G/D = xx0033   E5 * = 022xxx   G/F#  = 2x0033
G/F#  = xx4x33   Am7 = x02013   G#5  = 466xxx   Em7 * = 022030
Em7   = xx2x33   A5  = 577xxx   G *  = 320033
G/D   = xx0x33   G5  = 355xxx   B    = x24442

**************************************************************

[Intro]
    Asus2                      Cmaj7  
||:  /  /  /  / | /  /  /  / | /  /  /  / | /  /  /  / :||[x2]


[Verse 1]
    Asus2                                     Cmaj7
The child breaks ...each moment of sadness for our sakes,
 Asus2                           Cmaj7
Leaving, trying his best to be - lieve them,
                            Dsus2
Hoping this dream will come true,
                  Cmaj7
Sadness is only a face for you!


[Chorus]
G  G/F#      Em7           G/D     Cmaj7       C   C/B
I------ will try like the devil to bear your names,
  Am7    D7   G   G/F#
Anything for you---------,
   Em7     G/D        Cmaj7             C/B  Am7
In only a moment your life can change!


[Verse 2]
Asus2                                 Cmaj7
Still lake, rocking the boat it's not too late,
Asus2                             Cmaj7
Leaving, trying your best to be - lieve them,
                            Dsus2
Hoping this dream will come true,
                  Cmaj7
Sadness is only a face for you!


[Chorus]
G  G/F#      Em7           G/D     Cmaj7       C   C/B
I------ will try like the devil to bear your names,
  Am7    D7   G    G/F#
Anything for you----------,
    Em7    G/D        Cmaj7 
In only a moment your life can change,
      C/B   Am7
(Yes, it's true!)


[Break]
      A5 G5 A5       B5   D5      E5  D5  E5     E5 * G5 G#5
e |---------------|------------|---------------|-------------|
B |---------------|------------|---------------|-------------|
G |---------------|---4----7---|---9--\7--/9---|-------------|
D |---7--\5--/7---|---4----7---|---9--\7--/9---|---2--5--6---|
A |---7--\5--/7---|---2----5---|---7--\5--/7---|---2--5--6---|
E |---5--\3--/5---|------------|---------------|---0--3--4---|

      A5 G5 A5       B5   D5      E5  D5  E5    E5 *  G5 G#5
e |---------------|------------|---------------|-------------|
B |---------------|------------|---------------|-------------|
G |---------------|---4----7---|---9--\7--/9---|-------------|
D |---7--\5--/7---|---4----7---|---9--\7--/9---|---2--5--6---|
A |---7--\5--/7---|---2----5---|---7--\5--/7---|---2--5--6---|
E |---5--\3--/5---|------------|---------------|---0--3--4---|


[Verse 3]
     A5     G5   A5         B5  D5   E5  D5 E5
You fell through the win - dow, and down on the floor,
E5 *  G5 G#5   A5  G5  A5     B5   D5   E5  D5  E5
         You found a direc - tion you hope will say more,
           G           B                 Em   D C
With your life, it's taken every one of you!


[Verse 4]
     A5   G5   A5       B5  D5   E5    D5  E5
The peo - ple are pret -ty, the flow - ers are too,
E5 *  G5 G#5  A5   G5  A5       B5   D5       E5   D5  E5
         You don't get to hea - ven, if they don't say you do!


[Break]
      A5 G5 A5       B5   D5      E5 D5 E5      E5 *  G5 G#5
e |---------------|------------|---------------|-------------|
B |---------------|------------|---------------|-------------|
G |---------------|---4----7---|---9--\7--/9---|-------------|
D |---7--\5--/7---|---4----7---|---9--\7--/9---|---2--5--6---|
A |---7--\5--/7---|---2----5---|---7--\5--/7---|---2--5--6---|
E |---5--\3--/5---|------------|---------------|---0--3--4---|

      A5 G5 A5       B5   D5     E5  D5  E5
e |---------------|-----------|---------------|
B |---------------|-----------|---------------|
G |---------------|---4----7--|---9--\7--/9---|
D |---7--\5--/7---|---4----7--|---9--\7--/9---|
A |---7--\5--/7---|---2----5--|---7--\5--/7---|
E |---5--\3--/5---|-----------|---------------|


[Verse 5]
  E5   D5   B5  G *            B                 C
'Cause it's a-life, and it's taken every one of you,
          Cm    G *             G/F# *
And it's true,      I'd like to take you,
       Em7 *               C   D7   G *
But I don't think there's room for two,
            G/F# *       Em7 *         C  D7
I'd like to take, ...I'd like to take you!


[Coda - Repeats then end on G]
     G *            G/F# *     Em7          C  D7
||:     I'd like to take, I'd like to take you!    :||

            
            
Suggest correction
Creating personal tab
Creating personal tab
You can edit any tab online and save it as your Personal.

You can edit, replace or remove any tab part or add personal notes – all changes will be seen only by you.

Personal tabs can be accessed anytime from any device, even offline.
Learn more »
Give kudos to tab author, rate the tab!
1 2 3 4 5
comments
print report bad tab
1 comment total.
+1 reply
Mats Fagergren 2,214 Mar 12, 2017 03:48 PM

perfect chords. lovelly song...

guest
You may want to rate the tab now too:
select rating
Wanna post a correction for this tab? Suggest correction