Oops, an error
Loading. Please wait.

Ill See You When Were Both Not So Emotional chords

version 4
version 4

Whole song

661 views 9 this week
no commentswrite comment
1 2 3 4 5
3 more votes to show rating
add to favorites
×
Save as Personal and add changes to this tab that will be seen only by you. Learn more ›
×
You can save this tab as Personal to edit and correct it or add notes. All changes will be seen only by you. Learn more »
launch autoscroll
font size
0
reset
transpose
0
reset
simplify chords
display chords
guitar tuner
edit
Autoscroll
slow
fast
+/-
esc
set tempo
stop
Strumming
There is no strumming pattern for this song yet. and get +5 IQ
------------------------------------------------------------------------------
      I'LL SEE YOU WHEN WE'RE BOTH NO SO EMOTIONAL - American Football
-------------------------------------------------------------------------------
Chords by: Phanoune
E-mail: theophile.phanoune@gmail.com

CHORDS :

-> WARNING This is just a pretty nice way to play acoustically, this isn't official, it's an 
arrangement.
-> Key: B 
-> Tuning: Half-Step Down (Eb Ab Db Gb Bb eb)
-> With a view to make the chords easier to read, I will name them by their "Standard Tuning"
name : Em instead of Ebm for example.

Chords needed :
    Em   Fmaj7   Am7   C   Cmaj7
eb|--0----0-------0----0----0----------------------------------------------------|
Bb|--0----1-------1----1----0----------------------------------------------------|
Gb|--0----2-------0----0----0----------------------------------------------------|
Db|--2----3-------2----2----2----------------------------------------------------|
Ab|--2----3-------0----3----3----------------------------------------------------|
Eb|--0---------------------------------------------------------------------------|

You will also a need a G6 : it's composed of notes G B D E (why a G6 instead of a G ? because it 
matches better the sound of the original song)
You can still play a normal G if you don't like this chord. There are plenty of ways to play a G6, 
just find the one you prefer :
     G6   G6   G6   G6  G6
eb|--0----0----0----0---0--------------------------------------------------------|
Bb|--3----0----0----3---0--------------------------------------------------------|
Gb|--4----0----0----0---0--------------------------------------------------------|
Db|--5----5----0----0---0--------------------------------------------------------|
Ab|--5----5----5----2---2--------------------------------------------------------|
Eb|-------3----3----3---3--------------------------------------------------------|


SONG :

VERSE 1
Em              Fmaj7       
   If you're so prone 
      G6        Fmaj7
   to accidents 
                Am7
   and misunderstandings
              C
   You may accidentally 
           G6            Fmaj7
   misinterpret honesty 
        
   for selfishness


CHORUS
C   Cmaj7            Fmaj7
           We're two human beings, 
C   Cmaj7      Fmaj7
           individually
C   Cmaj7         Fmaj7
           With inherent 
C   G               Am7
           interest in 

           each other and 
                 Fmaj7   G6
           how we relate

   (it is a little bit complicated to know which chord to play during the instrumental end 
of the chorus, try something with that :)
Fmaj7   G6   Am


VERSE 2 
Em                 Fmaj7       
   If you're still prone 
      G6        Fmaj7
   to accidents 
                Am7
   and misunderstandings
                   C
   You won't understand me
             G6            Fmaj7
   or my motivation 
        
   for being alone


CHORUS


ENDING 
Fmaj7        C         Fmaj7     C            Fmaj7
      Considering everything, me leaving with regrets only makes sense
     C                               Fmaj7  
I'll see you when we're both not so emotional

            
            
Suggest correction
Creating personal tab
Creating personal tab
You can edit any tab online and save it as your Personal.

You can edit, replace or remove any tab part or add personal notes – all changes will be seen only by you.

Personal tabs can be accessed anytime from any device, even offline.
Learn more »
Give kudos to tab author, rate the tab!
1 2 3 4 5
comments
print report bad tab
guest
You may want to rate the tab now too:
select rating
Wanna post a correction for this tab? Suggest correction