Oops, an error
Loading. Please wait.

Stay Home tab

version 2
version 2

Whole song

Interactive

8,849 views 180 this week
1 commentread comment
1 2 3 4 5
x 9
add to favorites
×
Save as Personal and add changes to this tab that will be seen only by you. Learn more ›
×
You can save this tab as Personal to edit and correct it or add notes. All changes will be seen only by you. Learn more »
launch autoscroll
font size
0
reset
how to read this tab
guitar tuner
edit
Autoscroll
slow
fast
+/-
esc
set tempo
stop
Author
Difficulty
STAY HOME - American Football
Tabbed by: Phanoune
E-mail: theophile.phanoune@gmail.com.
Tuning: FADACf (if you're afraid to break strings, you can tune it one step lower and put a capo)
Key: F
Time signature : 7/4 

MIKE'S GUITAR

1) PART ONE : from 0:00 to 2:57.   
And IMPORTANT : why Steve's part is regular 7/4, Mike's one is quite irregular, so don't bother counting
in your head, and just learn how many times you have to play each segment.

               *4            *3            *3            *1
f|-----------0-------------0-------------0-------------0---------------------|
C|-----4-------------4-------------4-------------4---------------------------|
A|--------0-------------0-------------3-------------0------------------------|
D|--3-------------0----------------------------------------------------------|
A|------------------------------3-------------3------------------------------|
F|---------------------------------------------------------------------------|

               *3            *3            *1            *3
f|-----------0-------------0-------------0-------------0---------------------|
C|-----4-------------4-------------4-------------4---------------------------|
A|--------0-------------0-------------3-------------3------------------------|
D|--3-------------0-------------0--------------------------------------------|
A|--------------------------------------------3------------------------------|
F|---------------------------------------------------------------------------|
(You have to repeat this whole part 8 times. At the 9th time (just before the distorted 
chord) it is shortened.)

               *4            *3
f|-----------0-------------0-------------------------------------------------|
C|-----4-------------4-------------------------------------------------------|
A|--------0-------------0----------------------------------------------------|
D|--3-------------0----------------------------------------------------------|
A|---------------------------------------------------------------------------|
F|---------------------------------------------------------------------------|

[PART TWO : from 2:57 to 3:04] 
(This chord lasts for 2 bars of 7/4.)
f|--0------------------------------------------------------------------------|
C|--0------------------------------------------------------------------------|
A|--0------------------------------------------------------------------------|
D|--3------------------------------------------------------------------------|
A|--1------------------------------------------------------------------------|
F|---------------------------------------------------------------------------|

3) PART THREE : from 3:04 to 5:58 
There are two options for this part. I prefer the first one but I'll put the other too.
This sequence is 3 bars long. Repeat the whole thing 16 times. 
The 17th time, only hit the low F.

[First option]
f|-----------------0-----0-----0-----0-----0--0------------------------------|
C|--------------0-----4-----2-----0-----------0------------------------------|
A|-----0-----0--------------------------1-----0------------------------------|
D|--------5-----------------------------------3------------------------------|
A|--3-----------------------------------------1------------------------------|
F|--0------------------------------------------------------------------------|

[Second option]
f|-----------------0-----0-----0-----0-----0--0------------------------------|
C|--------------0-----------------------------0------------------------------|
A|-----0-----0--------7-----5-----3-----1-----0------------------------------|
D|--------5-----------------------------------3------------------------------|
A|--3-----------------------------------------1------------------------------|
F|--0------------------------------------------------------------------------|

[PART FOUR](from 5:58 to 6:42)
This sequence is 6 bars long. You have to play it twice.
f|--0------------------------------------------0-----------------------------|
C|--0---------------------------0--------------0-----------------------------|
A|--0---------------0--------------------------0-----------------------------|
D|--7---------------5------5---------3---------3-----------------------------|
A|--5---------------3--------------------------1-----------------------------|
F|---------------------------------------------------------------------------|

[PART FIVE](from 5:58 until the end)
f|-------------------7-----------------------7-------------------------------|
C|--9------9------9---------9------9------9----------------------------------|
A|-----10-----10--------10-----10-----10--------10---------------------------|
D|---------------------------------------------------------------------------|
A|---------------------------------------------------------------------------|
F|---------------------------------------------------------------------------|

            
            
Suggest correction
Creating personal tab
Creating personal tab
You can edit any tab online and save it as your Personal.

You can edit, replace or remove any tab part or add personal notes – all changes will be seen only by you.

Personal tabs can be accessed anytime from any device, even offline.
Learn more »
comments
print report bad tab
1 comment total.
0 reply
hahvahd 10 Sep 22, 2017 12:30 PM

This is great. Was just listening to Summer Ends on the last day of summer. Then realized Stay Home was what I wanted to play today. Awesome work.

guest
You may want to rate the tab now too:
select rating
Wanna post a correction for this tab? Suggest correction