Oops, an error
Loading. Please wait.

Pashmina - Fitoor tab

964 views 21 this week
no commentswrite comment
1 2 3 4 5
3 more votes to show rating
add to favorites
×
Save as Personal and add changes to this tab that will be seen only by you. Learn more ›
×
You can save this tab as Personal to edit and correct it or add notes. All changes will be seen only by you. Learn more »
launch autoscroll
font size
0
reset
how to read this tab
guitar tuner
edit
Autoscroll
slow
fast
+/-
esc
set tempo
stop
[Intro]

            4x           4x
e|------------|------------|
B|------------|------------|
G|------------|------------|
D|----------0-|----------2-|
A|--0h2--2----|--0h2--2----|
E|------------|------------|

This Intro plays in the background along with the flute.


[Verse]

                  Bm
Pashmina dhaagon ke sang
    E             F#m        G
Koi aaj, bune khwaab, aise kaise
                Bm
Waadi mein gunje kahi
    E              F#m       G
Naye saaz, yeh rawaab, aise kaise

                   Bm
Pashmina dhaagon ke sang

                D       F#m
Kaliyon ne badle abhi ye mizaaj
A           F#m
Ehsaas, aise kaise
              D         F#m
Palko ne khole abhi, naye raaz
A            G
Jazbaat, aise kaise


[Chorus]

                  Bm
Pashmina dhaagon ke sang
    E             F#m       G
Koi aaj, bune khwaab, aise kaise
              
                          
[Instrumental]

 Bm   E   Bm   G   A  
 Bm   E   Bm   G   A   Bm 


[Verse]

      Bm              G
Kacchi hawa kacha dhuaa ghul raha
      D                      A
Kaccha sa dil lamhein naye chun raha
      Bm                   G
Kacchi si dhoop kacchi dagar phisal rahi
    D                 A
Koi khada chupke se keh raha


[Pre-Chorus]

    Bm                      E
Main saaya banun, tere pichhe chalun
D                E
Chalta rahoon 


[Chorus]
                
                  Bm
Pashmina dhaagon ke sang
    E             F#m        G
Koi aaj, bune khwaab, aise kaise


[Instrumental]

 Bm   G   D   E  x2 


[Verse]

Bm            G            D       A
Shabhnam ke jo khathre yuhi jahal rahe
Bm             G             A
Shakhom pe wo mothi se khil rahe
Bm             G         D     A
Befikre se ik dooje mein khul rahe

Bm          G           A
Jab ho juda khayaalo mil rahe
Bm         E           Bm
Khayalo me yu, ye gufthagu
Bm               D       A
Jalthi rahe he..  he... 


[Instrumental]

e|----------------------------------------------------------------------|
B|----------------------------------------------------------------------|
G|----------------------------------------------------------------------|
D|--2s4--2--0--0-2-0------------0h2---0-2--2h4--0h2--4----2-0-2---------|
A|-------------------0h2---0-2------------------------------------------|
E|----------------------------------------------------------------------|

e|----------------------------------------------------------------------|
B|----------------------------------------------------------------------|
G|----------------------------------------------------------------------|
D|------4--2--0--0-2-0------------0h2---0-2--2h4----2--4----2-0-2-------|
A|-------------------0h2---0-2------------------------------------------|
E|----------------------------------------------------------------------|


[Chorus]

                  Bm
Pashmina dhaagon ke sang
    E             F#m        G
Koi aaj, bune khwaab, aise kaise



************************************

| h  Hammer-on
| s  Slide

************************************

            
            
Suggest correction
Creating personal tab
Creating personal tab
You can edit any tab online and save it as your Personal.

You can edit, replace or remove any tab part or add personal notes – all changes will be seen only by you.

Personal tabs can be accessed anytime from any device, even offline.
Learn more »
Give kudos to tab author, rate the tab!
1 2 3 4 5
comments
print report bad tab
guest
You may want to rate the tab now too:
select rating
Wanna post a correction for this tab? Suggest correction