Oops, an error
Loading. Please wait.

For Victory Or Death bass

version 1
version 1

Whole song

Interactive

271 views 1 this week
no commentswrite comment
1 2 3 4 5
3 more votes to show rating
add to favorites
×
Save as Personal and add changes to this tab that will be seen only by you. Learn more ›
×
You can save this tab as Personal to edit and correct it or add notes. All changes will be seen only by you. Learn more »
launch autoscroll
font size
0
reset
guitar tuner
edit
Autoscroll
slow
fast
+/-
esc
set tempo
stop
Author
Difficulty
Intro
G|---------------------------|---------------------------|
D|---------------------------|---------------------------|
A|-2--22--2--22--2--22--2--2-|-2--22--2--22--2--22--2--2-|
E|---------------------------|---------------------------|

G|---------------------------|---------------------------|
D|---------------------------|---------------------------|
A|-2-22-2-22-2-22-2-22-2-22--|-0-00-0-00-0-00-0-00-0-00--|
E|---------------------------|---------------------------|

G|---------------------------|---------------------------|
D|---------------------------|---------------------------|
A|-------------0-00-0-00-0-0-|-2-22-2-22-2-22-2-22-2-22--|
E|-3-33-3-33-3---------------|---------------------------|

G|---------------------------|---------------------------|
D|---------------------------|---------------------------|
A|-2-22-2-22-2-22-2-22-2-22--|-0-00-0-00-0-00-0-00-0-00--|
E|---------------------------|---------------------------|

G|---------------------------|---------------------------|
D|---------------------------|---------------------------|
A|-------------0-00-0-00-0-0-|-2-22-2-22-2-22-2-22-2-22--|
E|-3-33-3-33-3---------------|---------------------------|

Verse I
G|---------------------------|---------------------------|
D|---------------------------|---------------------------|
A|-5-55-2-22-5-55-2-55-2-----|-4-44-0-00-4-44-0-44-0-----|
E|---------------------------|---------------------------|

G|---------------------------|---------------------------|
D|---------------------------|---------------------------|
A|---------------------------|-2-22-0-00-----------------|
E|-3-33-0-00-3-5-55-3-33-5-5-|-----------3-33-0-00-0-00--|

G|---------------------------|---------------------------|
D|---------------------------|---------------------------|
A|-5-55-2-22-5-55-2-55-2-----|-4-44-0-00-4-44-0-44-0-----|
E|---------------------------|---------------------------|

G|---------------------------|---------------------------|
D|---------------------------|---------------------------|
A|---------------------------|-2-22-0-00-----------------|
E|-3-33-0-00-3-5-55-3-33-5-5-|-----------3-33-0-00-0-00--|

Bridge
G|---------------------------|---------------------------|
D|--4-2-0-2------0---0-------|---------------------------|
A|-----------------4---------|-4-2-4------2-0-2-2-2-2-22-|
E|---------------------------|---------------------------|

G|---------------------------|---------------------------|
D|--4-2-0-2------0---0-------|---------------------------|
A|-----------------4---------|-4-2-4------2-0-2-2-2-2-22-|
E|---------------------------|---------------------------|

Verse II
G|---------------------------|---------------------------|
D|-4-------------------------|-2-------------------------|
A|------------2-4-5----------|------------5-4-0-2-2-22---|
E|---------------------------|---------------------------|

G|---------------------------|---------------------------|
D|-4-0-2------------2-4------|-2-------------------------|
A|-------2-2-2-2-4-5----2-2-2|---5-2-4-4-4-5-4-0-2-2-2-2-|
E|---------------------------|---------------------------|

G|---------------------------|---------------------------|
D|-4-0-2------------2-4------|-2-------------------------|
A|-------2-2-2-2-4-5----2-2-2|---5-2-4-4-4-5-4-0-2-2-2-2-|
E|---------------------------|---------------------------|

G|---------------------------|---------------------------|
D|-4-0-2------------2-4------|-2-------------------------|
A|-------2-2-2-2-4-5----2-2-2|---5-2-4-4-4-5-4-0-2-2-2-2-|
E|---------------------------|---------------------------|

Bridge
G|---------------------------|
D|---------------------------|
A|-2--22--2--22--2--22--2--2-|
E|---------------------------|

G|---------------------------|---------------------------|
D|--4-2-0-2------0---0-------|---------------------------|
A|-----------------4---------|-4-2-4------2-0-2-2-2-2-22-|
E|---------------------------|---------------------------|

G|---------------------------|
D|---------------------------|
A|-2--22--2--22--2--22--2--2-|
E|---------------------------|

G|---------------------------|---------------------------|
D|--4-2-0-2------0---0-------|---------------------------|
A|-----------------4---------|-4-2-4------2-0-2-2-2-2-22-|
E|---------------------------|---------------------------|

Verse III
G|---------------------------|---------------------------|
D|-4-0-2------------2-4------|-2-------------------------|
A|-------2-2-2-2-4-5----2-2-2|---5-2-4-4-4-5-4-0-2-2-2-2-|
E|---------------------------|---------------------------|

G|---------------------------|---------------------------|
D|-4-0-2------------2-4------|-2-------------------------|
A|-------2-2-2-2-4-5----2-2-2|---5-2-4-4-4-5-4-0-2-2-2-2-|
E|---------------------------|---------------------------|

Chorus
G|---------------------------|---------------------------|
D|---------------------------|---------------------------|
A|-555-222-----------222-555-|444-222-444-222-000-222----|
E|---------22222-222---------|------------------------222|

G|---------------------------|---------------------------|
D|---------------------------|---------------------------|
A|-555-222-----------222-555-|777-555-777-444-000-444-222|
E|---------22222-222---------|---------------------------|

G|---------------------------|---------------------------|
D|---------------------------|---------------------------|
A|-555-222-----------222-555-|444-222-444-222-000-222----|
E|---------22222-222---------|------------------------222|

G|---------------------------|---------------------------|
D|---------------------------|---------------------------|
A|-555-222-----------222-555-|777-555-777-444-000-444-222|
E|---------22222-222---------|---------------------------|

Solo
G|---------------------------|---------------------------|
D|---------------------------|---------------------------|
A|---------------3-3-3-3-3-3-|-5-5-5-5-5-5-5-3-3-3-3-3-3-|
E|-0-0-0-0-0-0-0-------------|---------------------------|

G|---------------------------|---------------------------|
D|---------------------------|---------------------------|
A|---------------3-3-3-3-3-3-|-5-5-5-5-5-5-5-3-3-3-3-3-3-|
E|-0-0-0-0-0-0-0-------------|---------------------------|

Pre-Chorus IV
G|---------------------------|---------------------------|
D|---------------------------|---------------------------|
A|-5-55-2-22-5-55-2-55-2-----|-4-44-0-00-4-44-0-44-0-----|
E|---------------------------|---------------------------|

G|---------------------------|---------------------------|
D|---------------------------|---------------------------|
A|---------------------------|-2-22-0-00-----------------|
E|-3-33-0-00-3-5-55-3-33-5-5-|-----------3-33-0-00-0-00--|

G|---------------------------|---------------------------|
D|---------------------------|---------------------------|
A|-5-55-2-22-5-55-2-55-2-----|-4-44-0-00-4-44-0-44-0-----|
E|---------------------------|---------------------------|

G|---------------------------|---------------------------|
D|---------------------------|---------------------------|
A|---------------------------|-2-22-0-00-----------------|
E|-3-33-0-00-3-5-55-3-33-5-5-|-----------3-33-0-00-0-00--|

Chorus IV
G|---------------------------|---------------------------|
D|-5-55-2-22-5-55-2-55-2-----|-4-44-0-00-4-44-0-44-0-----|
A|---------------------------|---------------------------|
E|---------------------------|---------------------------|

G|---------------------------|---------------------------|
D|-5-55-2-22-5-55-7-77-5-55-7|-77-9-99-7-77-5-55-2-22-2--|
A|---------------------------|---------------------------|
E|---------------------------|---------------------------|

G|---------------------------|---------------------------|
D|-5-55-2-22-5-55-2-55-2-----|-4-44-0-00-4-44-0-44-0-----|
A|---------------------------|---------------------------|
E|---------------------------|---------------------------|

G|---------------------------|---------------------------|
D|-5-55-2-22-5-55-7-77-5-55-7|-77-9-99-7-77-5-55-2-22-2--|
A|---------------------------|---------------------------|
E|---------------------------|---------------------------|

G|---------------------------|---------------------------|
D|-5-55-2-22-5-55-2-55-2-----|-4-44-0-00-4-44-0-44-0-----|
A|---------------------------|---------------------------|
E|---------------------------|---------------------------|

G|---------------------------|---------------------------|
D|-5-55-2-22-5-55-7-77-5-55-7|-77-9-99-7-77-5-55-2-22-2--|
A|---------------------------|---------------------------|
E|---------------------------|---------------------------|

G|---------------------------|---------------------------|
D|-5-55-2-22-5-55-2-55-2-----|-4-44-0-00-4-44-0-44-0-----|
A|---------------------------|---------------------------|
E|---------------------------|---------------------------|

G|---------------------------|---------------------------|
D|-5-55-2-22-5-55-7-77-5-55-7|-77-9-99-7-77-5-55-2-22-2--|
A|---------------------------|---------------------------|
E|---------------------------|---------------------------|

Final
G|---------------------------|---------------------------|
D|--4-2-0-2------0---0-------|---------------------------|
A|-----------------4---------|-4-2-4------2-0-2-2-2-2-22-|
E|---------------------------|---------------------------|

G|---------------------------|---------------------------|
D|---------------------------|---------------------------|
A|-2--22--2--22--2--22--2--2-|-2--22--2--22--2--22--2--2-|
E|---------------------------|---------------------------|

G|---------------------------|---------------------------|
D|---------------------------|---------------------------|
A|-2--22--2--22--2--22--2--2-|-2--22--2--22--2--22--2--2-|
E|---------------------------|---------------------------|

            
            
Suggest correction
Creating personal tab
Creating personal tab
You can edit any tab online and save it as your Personal.

You can edit, replace or remove any tab part or add personal notes – all changes will be seen only by you.

Personal tabs can be accessed anytime from any device, even offline.
Learn more »
Give kudos to tab author, rate the tab!
1 2 3 4 5
comments
print report bad tab
guest
You may want to rate the tab now too:
select rating
Wanna post a correction for this tab? Suggest correction