Oops, an error
Loading. Please wait.

Live For The Kill tab

version 2
version 2

Whole song

Interactive

1,474 views 1 this week
no commentswrite comment
1 2 3 4 5
1 last vote to show rating
add to favorites
×
Save as Personal and add changes to this tab that will be seen only by you. Learn more ›
×
You can save this tab as Personal to edit and correct it or add notes. All changes will be seen only by you. Learn more »
launch autoscroll
font size
0
reset
how to read this tab
guitar tuner
edit
Autoscroll
slow
fast
+/-
esc
set tempo
stop
Author
Difficulty
Live for the Kill
By; Amon Amarth
As heard on; Twilight of the Thunder God
Tuning;Standard E

* I know AA tunes way down to B, the E standard tuning was just for fun. *

Intro Riff
E|-------------------------------------|
B|-------------------------------------|
G|-------------------------------------|X's 4
D|-7/9-7/9-7/9--710---7/9-7/9-7/9-5-77-|
A|-5/7-5/7-5/7--5-8---5/7-5/7-5/7-3-55-|
E|-------------------------------------|

Verse 1
PM all 0's
E|---------------------------------|      }
B|---------------------------------|      |
G|---------------------------------|      |
D|-50040050070050404h50000---------|      |
A|------------------------55555555-|      |
E|------------------------33333333-|      |
					  |X's 2
E|--------------------------------------| |
B|--------------------------------------| |
G|-----------------------------22220000-| |
D|-50040050070050404h555555p4p0---------| |
A|--------------------------------------| |
E|--------------------------------------| }

Bridge; Alternate pick as needed
E|--------------------------------------|
B|--------------------------------------|
G|---------------------7-5-4--7-5-4-5-7-|X's 3
D|-5-4-----5-4---7-5-4------------------|
A|-----5-7-----5------------------------|
E|--------------------------------------|

Intro Riff
E|-------------------------------------|
B|-------------------------------------|
G|-------------------------------------|X's 2
D|-7/9-7/9-7/9--710---7/9-7/9-7/9-5-77-|
A|-5/7-5/7-5/7--5-8---5/7-5/7-5/7-3-55-|
E|-------------------------------------|

Verse 2
PM all 0's
E|---------------------------------|      }
B|---------------------------------|      |
G|---------------------------------|      |
D|-50040050070050404h50000---------|      |
A|------------------------55555555-|      |
E|------------------------33333333-|      |
					  |X's 3
E|--------------------------------------| |
B|--------------------------------------| |
G|-----------------------------22220000-| |
D|-50040050070050404h555555p4p0---------| |
A|--------------------------------------| |
E|--------------------------------------| }

Pre-solo
E|------------------------------|
B|------------------------------|
G|------------------------------|X's 2
D|-9-7-5-4-5-7------------------|
A|-7-5-3-2-3-5------------------|
E|-------------0000000000000000-|


E|-------------------------|
B|-------------------------|
G|-------------------------|
D|-9-7-5-4-5-7-9-7-5-4-5-7-|
A|-7-5-3-2-3-5-7-5-3-2-3-5-|
E|-------------------------|

E|-------------------------------|
B|-------------------------------|
G|-4-5-4-2-0-2--4-5-7-5-4-5-4tr5-|
D|-------------------------------|
A|-------------------------------|
E|-------------------------------|

Intro Riff
E|-------------------------------------|
B|-------------------------------------|
G|-------------------------------------|
D|-7/9-7/9-7/9--710---7/9-7/9-7/9-5-77-|
A|-5/7-5/7-5/7--5-8---5/7-5/7-5/7-3-55-|
E|-------------------------------------|

Solo; Sorry if it's a bit off
	      *Harm*
E|--------------------------------|
B|--------------------------------|
G|-------0-2-4-*5*--4-2-0---------|
D|---0-2------------------2-4-5-4~|
A|-9\-----------------------------|
E|--------------------------------|

 [Sweep]
E|----------------------------------10-|
B|--------------------------------7----|
G|----7-5p4--4-5-7-0t2-2p0-------------|
D|---5-----5--------------2-4-5-4------|
A|--5----------------------------------|
E|-5-----------------------------------|

     X's4       X's4        X's4
E|-10p8p7---|-12p10p8---|-14p12p10---|
B|-------10-|--------12-|---------14-|
G|----------|-----------|------------|
D|----------|-----------|------------|
A|----------|-----------|------------|
E|----------|-----------|------------|

E|-10-8-7-8-10-3h5--15p14p12--15p14--14(15)-13(14)-12-|
B|--------------------------15-----15-----------------|
G|----------------------------------------------------|
D|----------------------------------------------------|
A|----------------------------------------------------|
E|----------------------------------------------------|

Violin part
E|----------------------------------------|
B|----------------------------------------|
G|---------------------7-5-4-4--7-5-4-4-2-|
D|-5-4-----5-4---7-5-4--------------------|
A|-----5-7-----5--------------------------|
E|----------------------------------------|

E|----------------------------------------|
B|----------------------------------------|
G|---------------------7-5-4-4--7-5-4-5-7-|
D|-5-4-----5-4---7-5-4--------------------|
A|-----5-7-----5--------------------------|
E|----------------------------------------|

E|----------------------10-8-7-7--10-8-7-8-10-|
B|-8-7-----8-7---10-8-7-----------------------|
G|-----7-9-----7------------------------------|
D|--------------------------------------------|
A|--------------------------------------------|
E|--------------------------------------------|

E|----------------------------------------|
B|----------------------------------------|
G|---------------------7-5-4-4--7-5-4-5-7-|
D|-5-4-----5-4---7-5-4--------------------|
A|-----5-7-----5--------------------------|
E|----------------------------------------|

Bridge; Alternate pick as needed
E|--------------------------------------|
B|--------------------------------------|
G|---------------------7-5-4--7-5-4-5-7-|X's 2
D|-5-4-----5-4---7-5-4------------------|
A|-----5-7-----5------------------------|
E|--------------------------------------|

Outro
E|-----------------------------|
B|-----------------------------|
G|-----------------------------|
D|-7/9-7/9-7/9--710---7/9-7/9\-|
A|-5/7-5/7-5/7--5-8---5/7-5/7\-|
E|-----------------------------|

            
            
Suggest correction
Creating personal tab
Creating personal tab
You can edit any tab online and save it as your Personal.

You can edit, replace or remove any tab part or add personal notes – all changes will be seen only by you.

Personal tabs can be accessed anytime from any device, even offline.
Learn more »
Give kudos to tab author, rate the tab!
1 2 3 4 5
comments
print report bad tab
guest
You may want to rate the tab now too:
select rating
Wanna post a correction for this tab? Suggest correction