Oops, an error
Loading. Please wait.
We have an official Twilight Of The Thunder God tab made by UG professional guitarists. Check out the tab »
×
6,065 views 15 this week
1 commentread comment
1 2 3 4 5
2 more votes to show rating
add to favorites
×
Save as Personal and add changes to this tab that will be seen only by you. Learn more ›
×
You can save this tab as Personal to edit and correct it or add notes. All changes will be seen only by you. Learn more »
launch autoscroll
font size
0
reset
how to read this tab
guitar tuner
backing track
0:00
0:00
edit
Autoscroll
slow
fast
+/-
esc
set tempo
stop
Author
This is my first tab and it was all done by ear.
i noticed no one bothered tabbing this awesome song,
so i wanted to be the first^_^
sorry no solo, didn't have the patience lol.
enjoy and please rate/comment!

tuning is drop B low to high: B F# B E G# C#

lead guitar= GTR 1
rhythm guitar= GTR 2

Intro:
GTR 1(intro/verse)
-------------------------------------------------------------------------|
-8--------------------------------8------------------------8-------------|
------9---------------------------------9------------9---------9---------|
------------9-----10-----9---7----------------9--------------------------|
--7-7---7-7---7-7----7-7---7---7----7-7---7-7---7-7----7-7---7-----------|
-------------------------------------------------------------------------|
  . .   . .   . .    . .   .   .    . .   . .   . .    . .   .


-------------------------------------------------------------------------|
7------------------------------7-----------------------7-----------------|
-----7-----------7-----9---7---------7-----------7---------7-------------|
-0-0---0-0-7-0-0---0-0---0---0---0-0---0-0-7-0-0---0-0---0---------------|
-------------------------------------------------------------------------|
-------------------------------------------------------------------------|
 . .   . .   . .   . .   .   .   . .   . .   . .   . .   .

GTR 2(intro)
-------------------------------------------------------------------------|
-------------------------------------------------------------------------|
-------------------------------------------------------------------------|
2---------------------------------2------------------5-----10------------|
2---(let-ring)--------------------2----(let-ring)----5-----10------------|
2---------------------------------2------------------5-----10------------|


-------------------------------------------------------------------------|
-------------------------------------------------------------------------|
-------------------------------------------------------------------------|
0---(let-ring)--------------------0-(let-ring)---------------------------|
0---------------------------------0--------------------------------------|
0---------------------------------0--------------------------------------|


GTR 2(verse)
(tremolo picking 32nd notes throughout listen to song for timing)
--------------------------------------------------------------------------|
--------------------------------------------------------------------------|
--------------------------------------------------------------------------|
--------------------------------------------------------------------------|
-----------------------------------------3--------------------------------|
2---------------------------5-----------------------------------0---------|


Chorus GTR 1
(tremolo picking throughout again listen to song for timing)
-------------------------------------------------------------------------|
-------------------------------------------------------------------------|
-------------------------------------------------------------------------|
----------4--5--7--9--7--5--7--5--7--5--4-----------4--------------------|
-7--5--7-----------------------------------7--5--7-----7-----------------|
-------------------------------------------------------------------------|

Chorus GTR 2
(tremolo picking throughout again listen to song for timing)
-------------------------------------------------------------------------|
-------------------------------------------------------------------------|
-------------------------------------------------------------------------|
-------------------------------------------------------------------------|
-------------------------------------------------------------------------|
-2--------5--------0--------2--0--2--4--2--------------------------------|


GTR 1 and 2
(post chorus thing before 2nd verse/breakdown)
-------------------------------------------------------------------------|
-------------------------------------------------------------------------|
-------------------------------------------------------------------------|
5------2----4--5--4--2---5-----2---4--5--4--2----------------------------|
5------2----2--3--2--0---5-----2---2--3--2--0----------------------------|
5------2-----------------5-----2-----------------------------------------|


Breakdown
GTR 1
----------------------------------------------|
----------------------------------------------|
----------------------------------------------|
2////-----------------------------------------|
2////--8-7-----10-8-----5-7-----8-7-----5-7---|
2////-----------------------------------------|


GTR 2
----------------------------------------------|
----------------------------------------------|
----------------------------------------------|
2////-2-2-2-2-2-2-2-2-2-2-2-2-2-2-2-2-2-2-2---|
2////-2-2-2-2-2-2-2-2-2-2-2-2-2-2-2-2-2-2-2---|
2////-2-2-2-2-2-2-2-2-2-2-2-2-2-2-2-2-2-2-2---|
      . . . . . . . . . . . . . . . . . . .

GTR 2
----------------------------------------------|
----------------------------------------------|
----------------------------------------------|
3p2-----5p3-----0h2-----3p2-----0h2-----------|
3p2-----5p3-----0h2-----3p2-----0h2-----------|
3p2-----5p3-----0h2-----3p2-----0h2-----------|


GTR 1
----------------------------------------------|
----------------------------------------------|
10/9---12/10---7/9----10/9----7/9-------------|
x-x-----x-x----x-x----x-x-----x-x-------------|
8/7----10/8----5/7----8/7-----5/7-------------|
----------------------------------------------|
GTR1
back to intro

GTR 2
----------------------------------------------|
----------------------------------------------|
----------------------------------------------|
2---2-2------5--10---0---0-0------------------|
2---2-2------5--10---0---0-0------------------|
2---2-2------5--10---0---0-0------------------|
    .                    .

Rhythm behind solo
(tremolo picking again listen for timing)
---------------------------------------------|
---------------------------------------------|
---------------------------------------------|
---------------------------------------------|
---------------------------------------------|
2----5----0----2--0--2--4--2-----------------|

Outro

GTR 1 and 2
---------------------------------------------|
---------------------------------------------|
---------------------------------------------|
5---2---4-5-4-2--5---2---4-5-4-2--2----------|
5---2---2-3-2-0--5---2---2-3-2-0--2----------|
5---2------------5---2------------2----------|


legend:
. - palm mute
/ - pick scrape
x - muted string

            
            
Suggest correction
Creating personal tab
Creating personal tab
You can edit any tab online and save it as your Personal.

You can edit, replace or remove any tab part or add personal notes – all changes will be seen only by you.

Personal tabs can be accessed anytime from any device, even offline.
Learn more »
Give kudos to tab author, rate the tab!
1 2 3 4 5
comments
print report bad tab
1 comment total.
0 reply
eNdofthELinE9 308 Apr 18, 2009 10:46 AM

Three things:
1. This is not in Drop B. It's in 7 string B standard.
2. There are other tabs for this song, you're not the first.
3. The point of tabs is that they are done by ear.

guest
You may want to rate the tab now too:
select rating
Wanna post a correction for this tab? Suggest correction