Oops, an error
Loading. Please wait.
We have an official Under The Northern Star tab made by UG professional guitarists. Check out the tab »
×
6,773 views 3 this week
no commentswrite comment
1 2 3 4 5
3 more votes to show rating
add to favorites
×
Save as Personal and add changes to this tab that will be seen only by you. Learn more ›
×
You can save this tab as Personal to edit and correct it or add notes. All changes will be seen only by you. Learn more »
launch autoscroll
font size
0
reset
how to read this tab
guitar tuner
edit
Autoscroll
slow
fast
+/-
esc
set tempo
stop
#----------------------------------PLEASE NOTE---------------------------------#
#This file is the author's own work and represents their interpretation of the #
#song. You may only use this file for private study, scholarship, or research. #
#------------------------------------------------------------------------------#


Transcribed by RGT_HRG1


        



Gtr I (D G C F A D) - 'Untitled'
Gtr II (D G C F A D) - 'Untitled'

  Q=140
 4/4
  Gtr I
  PM--------------------------------------------------------------------|
  E E E E E E E E    E  E E E E E E E   E E E E E E E E   E E E E E E E E
|-----------------|-------------------|-----------------|------------------|
|-----------------|-------------------|-----------------|------------------|
|-----------------|-------------------|-----------------|------------------|
|-----------------|-------------------|-----------------|------------------|
|-6-6-6-6-6-6-6-6-|--6--6-6-6-7-7-7-7-|-6-6-6-6-6-6-6-6-|-7-7-7-7-9-9-9-9--|
|-4-4-4-4-4-4-4-4-|--4--4-4-4-4-4-4-4-|-4-4-4-4-4-4-4-4-|-4-4-4-4-4-4-4-4--|
|
| Gtr II
| W                 +H        H         W                 H       H
|-----------------|-------------------|-----------------|------------------|
|-4---------------|-(4)-------5-------|-4---------------|-5-------7--------|
|-----------------|-------------------|-----------------|------------------|
|-----------------|-------------------|-----------------|------------------|
|-----------------|-------------------|-----------------|------------------|
|-----------------|-------------------|-----------------|------------------|


  PM----------------------------------------------------------------------|
  E E E E E E E E    E  E E E E E E E   E E E E E E E E    E  E E E E E E E
|-----------------|-------------------|-----------------|-------------------|
|-----------------|-------------------|-----------------|-------------------|
|-----------------|-------------------|-----------------|-------------------|
|-----------------|-------------------|-----------------|-------------------|
|-6-6-6-6-6-6-6-6-|--6--6-6-6-2-2-2-2-|-1-1-1-1-1-1-1-1-|--1--1-1-1-1-1-1-1-|
|-2-2-2-2-2-2-2-2-|--2--2-2-2-2-2-2-2-|-2-2-2-2-2-2-2-2-|--2--2-2-2-2-2-2-2-|
|
| W                 +H        H         W                 +H        H
|-----------------|-------------------|-----------------|-------------------|
|-4---------------|-(4)---------------|-----------------|-------------------|
|-----------------|-----------4-------|-3---------------|-(3)---------------|
|-----------------|-------------------|-----------------|-------------------|
|-----------------|-------------------|-----------------|-------------------|
|-----------------|-------------------|-----------------|-------------------|


  E E E E E E E E    E  E E E  E E E E   E E E E E E E E   E E E E E E E E
|-----------------|--------------------|-----------------|------------------|
|-----------------|--------------------|-----------------|------------------|
|-----------------|--------------------|-----------------|------------------|
|-----------------|--------------------|-----------------|------------------|
|-6-6-6-6-6-6-6-6-|--6--6-6-6--7-7-7-7-|-6-6-6-6-6-6-6-6-|-7-7-7-7-9-9-9-9--|
|-4-4-4-4-4-4-4-4-|--4--4-4-4--4-4-4-4-|-4-4-4-4-4-4-4-4-|-4-4-4-4-4-4-4-4--|
|
| W                 +H         H         W                 H       H
|-----------------|--------------------|-----------------|------------------|
|-4---------------|-(4)--------5-------|-4---------------|-5-------7--------|
|-----------------|--------------------|-----------------|------------------|
|-----------------|--------------------|-----------------|------------------|
|-----------------|--------------------|-----------------|------------------|
|-----------------|--------------------|-----------------|------------------|


  E E E E E E E E    E  E E E  E E E E   E E E E E E E E   E  H..
|-----------------|--------------------|-----------------|-----------|
|-----------------|--------------------|-----------------|-----------|
|-----------------|--------------------|-----------------|-----------|
|-----------------|--------------------|-----------------|-----------|
|-6-6-6-6-6-6-6-6-|--6--6-6-6--2-2-2-2-|-1-1-1-1-1-1-1-1-|-1---------|
|-2-2-2-2-2-2-2-2-|--2--2-2-2--2-2-2-2-|-2-2-2-2-2-2-2-2-|-2---------|
|
| W                 +H         H         W                 W
|-----------------|--------------------|-----------------|-----------|
|-4---------------|-(4)----------------|-----------------|-----------|
|-----------------|------------4-------|-3---------------|-----------|
|-----------------|--------------------|-----------------|-----------|
|-----------------|--------------------|-----------------|-----------|
|-----------------|--------------------|-----------------|-----------|


    Gtr II
    H.       E E   H.          Q    H.        E E   E E  H      E E
||--7--------7-6-|-7----------12-|-11--------11-7-|-7-6--6------6-4-|
||o--------------|---------------|----------------|-----------------|
||---------------|---------------|----------------|-----------------|
||---------------|---------------|----------------|-----------------|
||o--------------|---------------|----------------|-----------------|
||---------------|---------------|----------------|-----------------|
|
|   Gtr I
|   H     Q  E E   E  E Q  Q   Q    H     H         E Q.    E E E E
||---------------|---------------|----------------|-----------------|
||o--------------|---------------|----------------|-----------------|
||---------------|------4--4-----|--3-----3-------|-1-1-----1-1-1---|
||--6-----6--6-4-|-6--4-4--4---4-|--1-----1-------|-1-1-----1-1-1-4-|
||o-6-----6--4-4-|-6--2-2--2---4-|--1-----1-------|---------------4-|
||--4-----4--4-2-|-4--2--------2-|----------------|---------------2-|


  E Q.   Q  E E   H.         Q   H.         E E   E E E E H   4x
|-4-6----6--6-7-|-6----------9-|-7----------7-6-|-6-2-2-4-4---||
|---------------|--------------|----------------|------------o||
|---------------|--------------|----------------|-------------||
|---------------|--------------|----------------|-------------||
|---------------|--------------|----------------|------------o||
|---------------|--------------|----------------|-------------||
|
| H      H        E  E Q  H      E  E Q  H        E E Q   H   4x
|---------------|--------------|----------------|-------------||
|---------------|--------------|----------------|------------o||
|---------------|--------------|----------------|-------------||
|-4------4------|-4--4-4--4----|-2--2-2--2------|-2-----------||
|-4------4------|-4--4-4--4----|-2--2-2--2------|-2-4-4---4--o||
|-2------2------|-2--2-2--2----|----------------|---4-4---4---||


     W                  +H         H
||--11---------------|-(11)-------12-------|
||o------------------|---------------------|
||-------------------|---------------------|
||-------------------|---------------------|
||o------------------|---------------------|
||-------------------|---------------------|
|
|    PM-------------------------------------
|    E E E E E E E E     E  E E E  E E E E
||-------------------|---------------------|
||o------------------|---------------------|
||-------------------|---------------------|
||-------------------|---------------------|
||o--6-6-6-6-6-6-6-6-|---6--6-6-6--6-6-6-6-|
||---4-4-4-4-4-4-4-4-|---4--4-4-4--4-4-4-4-|


   W                  H        H
|-11---------------|-12-------14--------|
|------------------|--------------------|
|------------------|--------------------|
|------------------|--------------------|
|------------------|--------------------|
|------------------|--------------------|
|
|------------------------------------|
|  E E E E E E E E    E E E E  E E E E
|------------------|--------------------|
|------------------|--------------------|
|------------------|--------------------|
|------------------|--------------------|
|--6-6-6-6-6-6-6-6-|--6-6-6-6--9-9-9-9--|
|--4-4-4-4-4-4-4-4-|--4-4-4-4--7-7-7-7--|


   W                  +H        H
|-11---------------|-(11)-------7-------|
|------------------|--------------------|
|------------------|--------------------|
|------------------|--------------------|
|------------------|--------------------|
|------------------|--------------------|
|
|  PM------------------------------------
|  E E E E E E E E     E  E E E E E E E
|------------------|--------------------|
|------------------|--------------------|
|------------------|--------------------|
|------------------|--------------------|
|--4-4-4-4-4-4-4-4-|---4--4-4-4-4-4-4-4-|
|--2-2-2-2-2-2-2-2-|---2--2-2-2-2-2-2-2-|


  W                 +W
|-6---------------|-(6)----------------||
|-----------------|-------------------o||
|-----------------|--------------------||
|-----------------|--------------------||
|-----------------|-------------------o||
|-----------------|--------------------||
|
|-----------------------------------|
| E E E E E E E E    E  E E E E E E E
|-----------------|--------------------||
|-----------------|-------------------o||
|-----------------|--------------------||
|-----------------|--------------------||
|-6-6-6-6-6-6-6-6-|--6--6-6-6-6-6-6-6-o||
|-6-6-6-6-6-6-6-6-|--6--6-6-6-6-6-6-6--||


    S S S S S S S S S S S S S S S S   S S S S S S S S S S S S S S S S
||----------------------------------|----------------------------------|
||o---------------------------------|----------------------------------|
||----------------------------------|----------------------------------|
||--2-2-2-2-2-2-2-2-2-2-2-2-1-1-1-1-|-2-2-2-2-2-2-2-2-2-2-2-2-7-7-7-7--|
||o---------------------------------|----------------------------------|
||----------------------------------|----------------------------------|


  S S S S S S S S S S S S S S S S   S S S S S S S S S S S S S S S S
|---------------------------------|---------------------------------|
|---------------------------------|---------------------------------|
|---------------------------------|---------------------------------|
|-6-6-6-6-6-6-6-6-6-6-6-6-6-6-6-6-|---------------------------------|
|---------------------------------|-7-7-7-7-6-6-6-6-6-6-6-6-4-4-4-4-|
|---------------------------------|---------------------------------|


  S S S S S S S S S S S S S S S S   S S S S S S S S S S S S S S S S
|---------------------------------|---------------------------------|
|---------------------------------|---------------------------------|
|---------------------------------|---------------------------------|
|---------------------------------|---------------------------------|
|-6-6-6-6-6-6-6-6-6-6-6-6-4-4-4-4-|-6-6-6-6-6-6-6-6-6-6-6-6-9-9-9-9-|
|---------------------------------|---------------------------------|


  S S S S S S S S S S S S S S S S   S S S S S S S S S S S S S S S S  4x
|---------------------------------|----------------------------------||
|---------------------------------|---------------------------------o||
|---------------------------------|----------------------------------||
|---------------------------------|----------------------------------||
|-7-7-7-7-7-7-7-7-7-7-7-7-7-7-7-7-|-6-6-6-6-4-4-4-4-4-4-4-4-2-2-2-2-o||
|---------------------------------|----------------------------------||


                                                 5/4
  W         E E E E H         +Q    q   E E Q     E E E E H.
|---------|-7-6-4-2-4-------|-(4)---7---7-6-4---|-7-6-4-2-4------------|
|---------|-----------------|-------------------|----------------------|
|---------|-----------------|-------------------|----------------------|
|---------|-----------------|-------------------|----------------------|
|---------|-----------------|-------------------|----------------------|
|---------|-----------------|-------------------|----------------------|
|
| Gtr I
| W         E E E E E E E E    E  E E E E E E E   E E E E E  E E E E E
|---------|-----------------|-------------------|----------------------|
|---------|-----------------|-------------------|----------------------|
|---------|-----------------|-------------------|----------------------|
|---------|-----------------|-------------------|----------------------|
|---------|-6-6-6-6-6-6-6-6-|--6--6-6-6-6-6-6-6-|-6-6-6-6-6--6-6-6-6-6-|
|---------|-4-4-4-4-4-4-4-4-|--4--4-4-4-4-4-4-4-|-4-4-4-4-4--4-4-4-4-4-|


 4/4
  q   E E Q   E E   E E H.             E E Q   Q   E E   E E H.
|-7---7-6-4---6-4-|-2-4-6------------|-4-6-7---9---6-7-|-6-4-6-------------|
|-----------------|------------------|-----------------|-------------------|
|-----------------|------------------|-----------------|-------------------|
|-----------------|------------------|-----------------|-------------------|
|-----------------|------------------|-----------------|-------------------|
|-----------------|------------------|-----------------|-------------------|
|
| E E E E E E E E   E E E  E E E E E   E E E E E E E E   E E E  E E E E E
|-----------------|------------------|-----------------|-------------------|
|-----------------|------------------|-----------------|-------------------|
|-----------------|------------------|-----------------|-------------------|
|-----------------|------------------|-----------------|-------------------|
|-6-6-6-6-6-6-6-6-|-6-6-6--6-6-6-6-6-|-6-6-6-6-6-6-6-6-|-6-6-6--6-6-6-6-6--|
|-4-4-4-4-4-4-6-6-|-6-6-6--6-6-6-6-6-|-6-6-6-6-6-6-6-6-|-6-6-6--6-6-6-6-6--|


                                              3/4
  Q   Q   Q    E  E    E E  E  E  E  E  E  E    E  E  E  E  E  E
|-6---7---9---14-12-|-11-9-------------14-12-|-11--9-------------|
|-------------------|------16-14-12-11-16-14-|-12-11-16-14-12-11-|
|-------------------|------------------------|-------16-15-13-13-|
|-------------------|------------------------|-------------------|
|-------------------|------------------------|-------------------|
|-------------------|------------------------|-------------------|
|
| E E E E E E  E  E    E E  E  E  E  E  E  E    E  E  E  E  E  E
|-------------------|------------------------|-------------------|
|-------------------|------------------------|-------------------|
|-------------------|------------------------|-------------------|
|-------------------|------------------------|-------------------|
|-6-6-6-6-6-6--6--6-|--6-6--6--6--6--6--6--6-|--6--6--6--6--6--6-|
|-6-6-6-6-6-6--4--4-|--4-4--4--4--4--4--4--4-|--4--4--4--4--4--4-|


 4/4
  Q.      E Q   E E    Q   Q    Q    Q      H.            Q
|-7-------9-7---6-7-|--9---7----9---11---|-11------------11---|
|-9------11-9---7-9-|-11---9---11---12---|-12------------12---|
|-------------------|--------------------|--------------------|
|-------------------|--------------------|--------------------|
|-------------------|--------------------|--------------------|
|-------------------|--------------------|--------------------|
|
| E  E E  E E E E E    E E E E  E E  E E    E  E E E E E  E E
|-------------------|--------------------|--------------------|
|-------------------|--------------------|--------------------|
|-------------------|--------------------|--------------------|
|-------------------|--------------------|--------------------|
|-6--6-6--6-6-6-6-6-|--6-6-6-6--6-6--6-6-|--6--6-6-6-6-6--6-6-|
|-4--4-4--4-4-4-4-4-|--4-4-4-4--4-4--4-4-|--6--6-6-6-6-6--6-6-|


   Q    Q    Q    Q      E  E  E  E  E  E  E  E    E  E  E  E  H
|------11--------11---|-------------------------|----------------------|
|-12---12---11---12---|-11-12-11-12-11-12-11-12-|-11-12-11-12-14-------|
|-13--------11--------|-11-13-11-13-11-13-11-13-|-11-13-11-13-15-------|
|---------------------|-------------------------|----------------------|
|---------------------|-------------------------|----------------------|
|---------------------|-------------------------|----------------------|
|
|  E E  E E  E E  E E    E  E  E  E  E  E  E  E    E  E  E  E  E E E E
|---------------------|-------------------------|----------------------|
|---------------------|-------------------------|----------------------|
|---------------------|-------------------------|----------------------|
|---------------------|-------------------------|----------------------|
|--6-6--6-6--6-6--6-6-|--6--6--6--6--6--6--6--6-|--6--6--6--6--6-6-6-6-|
|--6-6--6-6--6-6--6-6-|--6--6--6--6--6--6--6--6-|--6--6--6--6--6-6-6-6-|


    H.       E E   H.          Q     H.        E E   E E  H      E E
||--7--------7-6-|-7----------12--|-11--------11-7-|-7-6--6------6-4--|
||o--------------|----------------|----------------|------------------|
||---------------|----------------|----------------|------------------|
||---------------|----------------|----------------|------------------|
||o--------------|----------------|----------------|------------------|
||---------------|----------------|----------------|------------------|
|
|   H     Q  E E   E  E Q  Q   Q     H     H         E Q.    E E E E
||---------------|----------------|----------------|------------------|
||o--------------|----------------|----------------|------------------|
||---------------|------4--4------|--3-----3-------|-1-1-----1-1-1----|
||--6-----6--6-4-|-6--4-4--4---4--|--1-----1-------|-1-1-----1-1-1-4--|
||o-6-----6--4-4-|-6--2-2--2---4--|--1-----1-------|---------------4--|
||--4-----4--4-2-|-4--2--------2--|----------------|---------------2--|


  E Q.   Q  E E   H.         Q    H.         E E   E E E E H     3x
|-4-6----6--6-7-|-6----------9--|-7----------7-6-|-6-2-2-4-4-----||
|---------------|---------------|----------------|--------------o||
|---------------|---------------|----------------|---------------||
|---------------|---------------|----------------|---------------||
|---------------|---------------|----------------|--------------o||
|---------------|---------------|----------------|---------------||
|
| H      H        E  E Q  H       E  E Q  H        E E Q   H     3x
|---------------|---------------|----------------|---------------||
|---------------|---------------|----------------|--------------o||
|---------------|---------------|----------------|---------------||
|-4------4------|-4--4-4--4-----|-2--2-2--2------|-2-------------||
|-4------4------|-4--4-4--4-----|-2--2-2--2------|-2-4-4---4----o||
|-2------2------|-2--2-2--2-----|----------------|---4-4---4-----||


  H.       E E   H.          Q     H.        E E   E E  H      E E
|-7--------7-6-|-7----------12--|-11--------11-7-|-7-6--6------6-4-|
|--------------|----------------|----------------|-----------------|
|--------------|----------------|----------------|-----------------|
|--------------|----------------|----------------|-----------------|
|--------------|----------------|----------------|-----------------|
|--------------|----------------|----------------|-----------------|
|
| H     Q  E E   E  E Q  Q   Q     H     H         E Q.    E E E E
|--------------|----------------|----------------|-----------------|
|--------------|----------------|----------------|-----------------|
|--------------|------4--4------|--3-----3-------|-1-1-----1-1-1---|
|-6-----6--6-4-|-6--4-4--4---4--|--1-----1-------|-1-1-----1-1-1-4-|
|-6-----6--4-4-|-6--2-2--2---4--|--1-----1-------|---------------4-|
|-4-----4--4-2-|-4--2--------2--|----------------|---------------2-|


                                                  2/4
  E Q.   Q  E E   H.         Q    H.         E E   E E E E
|-4-6----6--6-7-|-6----------9--|-7----------7-6-|-6-2-2-4----|
|---------------|---------------|----------------|------------|
|---------------|---------------|----------------|------------|
|---------------|---------------|----------------|------------|
|---------------|---------------|----------------|------------|
|---------------|---------------|----------------|------------|
|
| H      H        E  E Q  H       E  E Q  H        E E Q
|---------------|---------------|----------------|------------|
|---------------|---------------|----------------|------------|
|---------------|---------------|----------------|------------|
|-4------4------|-4--4-4--4-----|-2--2-2--2------|-2----------|
|-4------4------|-4--4-4--4-----|-2--2-2--2------|-2-4-4------|
|-2------2------|-2--2-2--2-----|----------------|---4-4------|


 4/4
  W         +W
|-4-----|---(4)----*|
|-------|----------*|
|-------|----------*|
|-------|----------*|
|-------|----------*|
|-------|----------*|
|
| W          W
|-------|----------*|
|-------|----------*|
|-------|----------*|
|-------|----------*|
|-4-----|---(4)----*|
|-4-----|----4-----*|



Duration Legend
---------------
W - whole; H - half; Q - quarter; E - 8th; S - 16th; T - 32nd; X - 64th; a - acciaccatura
+ - note tied to previous; . - note dotted; .. - note double dotted
Uncapitalized letters represent notes that are staccato (1/2 duration)
Irregular groupings are notated above the duration line
Duration letters will always appear directly above the note/fret number it represents the
duration for.  Duration letters with no fret number below them represent rests.  Multi-
bar rests are notated in the form Wxn, where n is the number of bars to rest for.  Low
melody durations appear below the staff

Tablature Legend
----------------
 h   - hammer-on
 p   - pull-off
 b   - bend
 pb  - pre-bend
 r   - bend release (if no number after the r, then release immediately)
 /\  - slide into or out of (from/to "nowhere")
 s   - legato slide
 S   - shift slide
 - natural harmonic
[n]  - artificial harmonic
n(n) - tapped harmonic
 ~   - vibrato
 tr  - trill
 T   - tap
 TP  - trem. picking
 PM  - palm muting
\n/  - tremolo bar dip; n = amount to dip
 \n  - tremolo bar down
 n/  - tremolo bar up
/n\  - tremolo bar inverted dip
 =   - hold bend; also acts as connecting device for hammers/pulls
 <> - volume swell (louder/softer)
 x   - on rhythm slash represents muted slash
 o   - on rhythm slash represents single note slash

Misc Legend
-----------
 |  - bar
||  - double bar
||o - repeat start
o|| - repeat end
*|  - double bar (ending)
 :  - bar (freetime)
 $  - Segno
 &  - Coda
Tempo markers -  = BPM(8/16=s8/s16), where s8 = swing 8ths, s16 = swing 16ths


            
            
Suggest correction
Creating personal tab
Creating personal tab
You can edit any tab online and save it as your Personal.

You can edit, replace or remove any tab part or add personal notes – all changes will be seen only by you.

Personal tabs can be accessed anytime from any device, even offline.
Learn more »
Give kudos to tab author, rate the tab!
1 2 3 4 5
comments
print report bad tab
guest
You may want to rate the tab now too:
select rating
Wanna post a correction for this tab? Suggest correction