Oops, an error
Loading. Please wait.

Valhall Awaits Me tab

version 1
version 1

Whole song

4,624 views 3 this week
7 commentsread comments
1 2 3 4 5
x 4
add to favorites
×
Save as Personal and add changes to this tab that will be seen only by you. Learn more ›
×
You can save this tab as Personal to edit and correct it or add notes. All changes will be seen only by you. Learn more »
launch autoscroll
font size
0
reset
how to read this tab
guitar tuner
edit
Autoscroll
slow
fast
+/-
esc
set tempo
stop
Author
Song: Vallhall Awaits Me
Artist: Amon Amarth
Album: With Oden on Our Side
Tuning (low to high): B F# B E G# C#
Tab By: Tiller (Ti1ler@yahoo.com)

.- Palm Mute

*- Pinch Harmonic

/- Slide


Intro (0:00-0:11)
C#---------------------------------------------------------------------|
G#---------------------------------------------------------------------|
E ---------------------------------------------------------------------|
B --2-2-2-0-0-0-2-2-2-5-5-5-2-2-5-5------------------------------------|
F#--2-2-2-0-0-0-2-2-2-5-5-5-2-2-5-5------------------------------------|
B –-2-2-2-0-0-0-2-2-2-5-5-5-2-2-5-5------------------------------------|
      . .   . .   . .   . .   .   .


Main Riff (0:11-0:52)
C#---------------------------------------------------------------------|
G#---------------------------------------------------------------------|
E ---------------------------------------------------------------------|
B ---------------------------------------------------------------------|
F#--7-----5-----7-----10-----7---5---7-----5-----7-----10-----7---5----|
B –---0-0---0-0---0-0----0-0---0---0---0-0---0-0---0-0----0-0---0---0--|
      . .   . .   . .    . .   .   .   . .   . .   . .    . .   .   .

C#---------------------------------------------------------------------|
G#---------------------------------------------------------------------|
E ---------------------------------------------------------------------|
B -------------------------------------9-9-9-9-9-9-9-9-9-9-9-9-9-9-9-9-|
F#--12-----10-----9-----10-----9---7---9-9-9-9-9-9-9-9-9-9-9-9-9-9-9-9-|
B –----0-0----0-0---0-0----0-0---0---0-9-9-9-9-9-9-9-9-9-9-9-9-9-9-9-9-|
       . .    . .   . .    . .   .   .   . .   . .   . .   . .

Main Riff 2 (0:52-1:33) ALL TREMELO PICKING
C#---------------------------------------------------------------------|
G#---------------------------------------------------------------------|
E ---------------------------------------------------------------------|
B ---------------------------------------------------------------------|
F#--7---5-7--10--9---7-9----10--12-14--12--10--9---14------------------|
B –--------------------------------------------------------------------|

C#---------------------------------------------------------------------|
G#---------------------------------------------------------------------|
E ---------------------------------------------------------------------|
B ---------------------------------------------------------------------|
F#--7---5-7--10--9---7-9----10--9-7-9-----14---------------------------|
B –--------------------------------------------------------------------|

Main Riff (1:33-1:53)
C#---------------------------------------------------------------------|
G#---------------------------------------------------------------------|
E ---------------------------------------------------------------------|
B ---------------------------------------------------------------------|
F#--7-----5-----7-----10-----7---5---7-----5-----7-----10-----7---5----|
B –---0-0---0-0---0-0----0-0---0---0---0-0---0-0---0-0----0-0---0---0--|
      . .   . .   . .    . .   .   .   . .   . .   . .    . .   .   .

C#---------------------------------------------------------------------|
G#---------------------------------------------------------------------|
E ---------------------------------------------------------------------|
B -------------------------------------9-9-9-9-9-9-9-9-9-9-9-9-9-9-9-9-|
F#--12-----10-----9-----10-----9---7---9-9-9-9-9-9-9-9-9-9-9-9-9-9-9-9-|
B –----0-0----0-0---0-0----0-0---0---0-9-9-9-9-9-9-9-9-9-9-9-9-9-9-9-9-|
       . .    . .   . .    . .   .   .   . .   . .   . .   . .


Intro Riff (1:53-2:03)
C#---------------------------------------------------------------------|
G#---------------------------------------------------------------------|
E ---------------------------------------------------------------------|
B --2-2-2-0-0-0-2-2-2-5-5-5-2-2-5-5------------------------------------|
F#--2-2-2-0-0-0-2-2-2-5-5-5-2-2-5-5------------------------------------|
B –-2-2-2-0-0-0-2-2-2-5-5-5-2-2-5-5------------------------------------|
      . .   . .   . .   . .   .   .

Chorus (2:03-2:45) TREMELLO PICK NOTES ON F#
C#--------------------------------------------------------------------|
G#--------------------------------------------------------------------|
E --------------------------------------------------------------------|
B --------------------------------------------------------------------|
F#--------777777------101010101010------9999999------121212121212-----|
B –-0-000-------0-000-------------0-000--------0-000------------------|

C#--------------------------------------------------------------------|
G#--------------------------------------------------------------------|
E --------------------------------------------------------------------|
B --------------------------------------------------------------------|
F#--------101010101010------999999-------777777-------777777----------|
B –-0-000-------------0-000--------0-000--------0-000-----------------|


Main Riff (2:45-3:16)
C#---------------------------------------------------------------------|
G#---------------------------------------------------------------------|
E ---------------------------------------------------------------------|
B ---------------------------------------------------------------------|
F#--7-----5-----7-----10-----7---5---7-----5-----7-----10-----7---5----|
B –---0-0---0-0---0-0----0-0---0---0---0-0---0-0---0-0----0-0---0---0--|
      . .   . .   . .    . .   .   .   . .   . .   . .    . .   .   .

C#---------------------------------------------------------------------|
G#---------------------------------------------------------------------|
E ---------------------------------------------------------------------|
B -------------------------------------9-9-9-9-9-9-9-9-9-9-9-9-9-9-9-9-|
F#--12-----10-----9-----10-----9---7---9-9-9-9-9-9-9-9-9-9-9-9-9-9-9-9-|
B –----0-0----0-0---0-0----0-0---0---0-9-9-9-9-9-9-9-9-9-9-9-9-9-9-9-9-|
       . .    . .   . .    . .   .   .   . .   . .   . .   . .

C#---------------------------------------------------------------------|
G#---------------------------------------------------------------------|
E ---------------------------------------------------------------------|
B ---------------------------------------------------------------------|
F#--7-----5-----7-----10-----7---5---7-----5-----7-----10-----7---5----|
B –---0-0---0-0---0-0----0-0---0---0---0-0---0-0---0-0----0-0---0---0--|
      . .   . .   . .    . .   .   .   . .   . .   . .    . .   .   .

C#--------------------------------------------------------------------|
G#--------------------------------------------------------------------|
E --------------------------------------------------------------------|
B -------------------------------------9-9-9-9-9-9-9-9-9-9-9-9-0-0----|
F#--12-----10-----9-----10-----9---7---9-9-9-9-9-9-9-9-9-9-9-9-0-0----|
B –----0-0----0-0---0-0----0-0---0---0-9-9-9-9-9-9-9-9-9-9-9-9-0-0----|
       . .    . .   . .    . .   .   .   . .   . .   . .   . . . .

Solo 1 (3:16-3:37)
C#----------------------------------------------------------------------|
G#----------------------------------------------------------------------|
E --12----11---9--11-12-11----------------------------------------------|
B --------------------------9----12---9-12-9---7-9-7---/5-4--5-7--9--12-|
F#----------------------------------------------------------------------|
B –---------------------------------------------------------------------|

C#---------------------------------------------------------------------|
G#---------------------------------------------------------------------|
E -12----11---9--11-12-11-11*--12-14-12-15-12---10-12-10---12-15-12----|
B ---------------------------------------------------------------------|
F#---------------------------------------------------------------------|
B –--------------------------------------------------------------------|

C#---------------------------------------------------------------------|
G#---------------------------------------------------------------------|
E –-12/15--15/17-19----------------------------------------------------|
B ---------------------------------------------------------------------|
F#---------------------------------------------------------------------|
B –--------------------------------------------------------------------|

Solo 2 (3:37-3:57)

Chorus (3:57-4:38)
C#--------------------------------------------------------------------|
G#--------------------------------------------------------------------|
E --------------------------------------------------------------------|
B --------------------------------------------------------------------|
F#--------777777------101010101010------9999999------121212121212-----|
B –-0-000-------0-000-------------0-000--------0-000------------------|
    . ...       . ...             . ...        . ...
C#--------------------------------------------------------------------|
G#--------------------------------------------------------------------|
E --------------------------------------------------------------------|
B --------------------------------------------------------------------|
F#--------101010101010------999999-------777777-------777777----------|
B –-0-000-------------0-000--------0-000--------0-000-----------------|
    . ...             . ...        . ...        . ...

Outro Riff (4:38-4:43)
C#---------------------------------------------------------------------|
G#---------------------------------------------------------------------|
E –--------------------------------------------------------------------|
B --2-2-2-0-0-0-2-2-2-5-5-5-2-2-0-0-2-2-2-0-0-0-2----------------------|
F#----------------------------------2-2-2-0-0-0-2----------------------|
B –---------------------------------2-2-2-0-0-0-2----------------------|
      . .   . .   . .   . .   .   .   . .   . .

            
            
Suggest correction
Creating personal tab
Creating personal tab
You can edit any tab online and save it as your Personal.

You can edit, replace or remove any tab part or add personal notes – all changes will be seen only by you.

Personal tabs can be accessed anytime from any device, even offline.
Learn more »
comments
print report bad tab
7 comments total. Showing first comments.
0 reply
Tiller 77 Dec 25, 2006 07:14 PM

yeah i messed up typing the solo. it should be like this. i wasnt too off, the last few notes are just down on string.

Solo 1 (3:16-3:37)
C#---------------------------------------------------------------------
G#---------------------------------------------------------------------
E --12----11---9--11-12-11---------------------------------------------
B --------------------------9----12---9-12-9---7-9-7---/5-4--5-7--9--12
F#---------------------------------------------------------------------
B –--------------------------------------------------------------------

C#---------------------------------------------------------------------
G#-----------------------------------12-15-12---10-12-10---12-15-12----
E -12----11---9--11-12-11-11*--12-14-----------------------------------
B ---------------------------------------------------------------------
F#---------------------------------------------------------------------
B –--------------------------------------------------------------------

C#---------------------------------------------------------------------
G#--12/15—-15/17-19---------------------------------------------------
E –--------------------------------------------------------------------
B ---------------------------------------------------------------------
F#---------------------------------------------------------------------
B –--------------------------------------------------------------------

0 reply
spade_of_jack 10 Feb 05, 2007 07:22 AM

Spot on, its basically perfect except missing 2nd solo. But other that, I applaud you. Also it's 2 guitars, so you might have wanted to put both part.

0 reply
Tiller 77 Feb 07, 2007 11:47 AM

thank you. yes, i tried to get the 2nd guitar part but my speakers are terrible so i couldnt hear it that well. it sounded pretty simple so i figured if you can play whats in the tab, you can figure out the 2nd guitar part on your own.

guest
You may want to rate the tab now too:
select rating
Wanna post a correction for this tab? Suggest correction