Oops, an error
Loading. Please wait.

Where Death Seems To Dwell bass

version 1
version 1

Whole song

Interactive

665 views 1 this week
1 commentread comment
1 2 3 4 5
3 more votes to show rating
add to favorites
×
Save as Personal and add changes to this tab that will be seen only by you. Learn more ›
×
You can save this tab as Personal to edit and correct it or add notes. All changes will be seen only by you. Learn more »
launch autoscroll
font size
0
reset
guitar tuner
edit
Autoscroll
slow
fast
+/-
esc
set tempo
stop
Author
Difficulty
-----------------------------------------------------------------------------
                  Amon Amarth - Where Death Seems to Dwell
-----------------------------------------------------------------------------

Hi guys, this is my first Tab, so it can be wrong.
Tabbed by: Domi166
Ultimate-guitar
Tune
First sting:   B
Second string: E
Third string:  D
Fourth string: A
   
   4/4 Tact
    
 Intro1    
D|--------|
A|--------|
E|--------|
B|--------|
  Come in        
D|---------|
A|---------|
E|---------|
B|-5-5-4-5-|
  1Tact        
D|-------| 
A|-------|  
E|-------| 
B|-0~----|
  2Tact        
D|-------| 
A|-------|  
E|-------| 
B|-2~----|
  3Tact        
D|-------| 
A|-------|  
E|-3~----| 
B|-------|
  Fill1                
D|-------|--------| 
A|-------|---5545-|
E|-2~----|2~------|
B|-----5-|--------|
   4Tact
D|--------| 
A|--------|  
E|--------| 
B|-0~-00~-|
   5Tact
D|--------| 
A|--------|  
E|--------| 
B|-2~-22~-|
  6Tact
D|--------|
A|--------|
E|-3~-33~-|
B|--------|
  Fill2
D|--------|---------|
A|--------|-----5545|
E|-2~-22--|2-22-----|
B|-------5|---------|
  7Tact
D|-------| 
A|-------|  
E|3333333| Play the Full 4/4 Tackt 16x-tel notes!!! 
B|-------|
  8Tact
D|-------| 
A|-------|  
E|2222222||Play the Full 4/4 Tackt 16x-tel notes!!! 
B|-------|
  9Tact
D|--------|
A|--------|
E|--------|
B|-0---2--|
  10Tact
D|--------|
A|--------|
E|----3---|
B|-3------|
  11Tact
D|--------|
A|--------|
E|-2------|
B|--------|
  Fill3
D|----------------|--------------------------------|
A|----------------|--------------------------------|
E|-2--0---------0-|2-2-2-5-5-5-4-4-4-5-5-5-7~-5~-7~|
B|------3-2---3---|--------------------------------|
   Fill4
D|---------------|-------------|---------------|--------------|
A|--5-5-4-4------|-5-5-4-4-7-7-|---------------|--------------|
E|---------------|-------------|---------------|3-3-3-3-2-2---|
B|0--------0-0-0-|0------------|3-3-3-3-3-3-3-3|-----------0-0|
   Fill5
D|-------|---------|--------|-------|
A|-------|---------|--------|-------|
E|-------|---------|--------|-------|
B|0--2--3|--5--7--3|-2------|-2-----|
  Outro
D|---------------|-------------|
A|--5-5-4-4------|-------------|
E|---------------|-------------|
B|0--------0-0-0-|0------------|

|~ = let the note ring
|____________
Order List:
Intro1 (8x)
Come in (1x)
1Tact (2x)
2Tact (2x)
3Tact (2x)
Fill1 (1x)
4Tact (2x)
5Tact (2x)
6Tact (2x)
Fill2 (1x)
4Tact (2x)
5Tact (2x)
6Tact (2x)
Fill2 (1x)
7Tact (2x)
8Tact (2x)
7Tact (2x)
8Tact (2x)
7Tact (2x)
8Tact (2x)
7Tact (2x)
8Tact (2x)
9Tact (1x)
10tact (1x)
11tact (2x)
9Tact (1x)
10tact (1x)
11tact (2x)
Fill3 (1x)
Fill4 (4x)
Fill5 (4x)
Fill6 (6x)
Outro (1x)

            
            
Suggest correction
Creating personal tab
Creating personal tab
You can edit any tab online and save it as your Personal.

You can edit, replace or remove any tab part or add personal notes – all changes will be seen only by you.

Personal tabs can be accessed anytime from any device, even offline.
Learn more »
Give kudos to tab author, rate the tab!
1 2 3 4 5
comments
print report bad tab
1 comment total.
0 reply
mousons 10 Dec 10, 2009 10:33 AM

you got your string backwards, 4 is the low string and 1 is the high string.

guest
You may want to rate the tab now too:
select rating
Wanna post a correction for this tab? Suggest correction