Oops, an error
Loading. Please wait.

Silver Bride tab

version 3
version 3

Whole song

Interactive

1,093 views 3 this week
no commentswrite comment
1 2 3 4 5
3 more votes to show rating
add to favorites
×
Save as Personal and add changes to this tab that will be seen only by you. Learn more ›
×
You can save this tab as Personal to edit and correct it or add notes. All changes will be seen only by you. Learn more »
launch autoscroll
font size
0
reset
how to read this tab
guitar tuner
edit
Autoscroll
slow
fast
+/-
esc
set tempo
stop
Author
Artist: Amorphis
Song: Silver Bride (Album Version)

Tuning: One Step Down - D G C F A D
. = Palm Mute
/ = Bend Up Full Note


My friend Devin really likes this song.
So I decided to make tabs for her and
to share them here. Enjoy.

Any mistakes you find, let me know by message or comment.


Intro A: (0:30)

Lead
D]-------------------------|
A]----15----13-------------|
F]-12----12----12-15-14-10-|
C]-------------------------|
G]-------------------------|
D]-------------------------|
                           Repeat 4x
Rhythm
D]-------------------------|
A]-------------------------|
F]-------------------------|
C]-------------------------|
G]--5--5--5--5--5--5--33-3-|
D]--3--3--3--3--3--3--11-1-|
                      ..
Intro B:

Lead
D]----------13------------------------13-------------|
A]----15------------------------15-------------------|
F]-12----12----12-15-13------12----12----12-15-13----|
C]----------------------15------------------------15-|
G]---------------------------------------------------|
D]---------------------------------------------------|

Rhythm
D]---------------------------------------------------|
A]---------------------------------------------------|
F]---------------------------------------------------|
C]---------------------------------------------------|
G]--8--8--8--8--8--8--8--8---10-10-10-10-10-10-10-10-|
D]--6--6--6--6--6--6--6--6----8--8--8--8--8--8--8--8-|

Intro C:

Lead
D]-------------------------|
A]----15----13-------------|
F]-12----12----12-15-14-10-|
C]-------------------------|
G]-------------------------|
D]-------------------------|
                           Repeat 2x
Rhythm
D]-------------------------|
A]-------------------------|
F]-------------------------|
C]-------------------------|
G]--5--5--5--5--5--5--33-3-|
D]--3--3--3--3--3--3--11-1-|
                      ..

                   (((REPEAT INTRO (ABC) ONE MORE TIME)))


Riff A: (1:01)

Rhythm only.
D]---------------------------------------------------------|
A]---------------------------------------------------------|
F]---------------------------------------------------------|Repeat 4x
C]---------------------------------------------------------|
G]---------------------------------------------------------|
D]--3-3-3-3-3--3-3-3-3-3--------3-3-3--3-3-1-1-1-1-1-1-1-1-|
    . . . . .  . . . . .        . . .  . . . . . . . . . .



Riff A1 with lead (1:18)
(I know there are mistakes here. Its a bit weird for me)

Lead                          Repeat 4x
D]--------------------------------------------------------------------------|
A]----------8--6------------------------8----6----------------------8---6---|
F]--------------------------------------------------------------------------|
C]--5--5-----------5---5---------5----------------5---5---5---5-------------|
G]--------------------------------------------------------------------------|
D]--------------------------------------------------------------------------|

Rhythm
D]--------------------------------------------------------------------------|
A]--------------------------------------------------------------------------|
F]--------------------------------------------------------------------------|
C]--------------------------------------------------------------------------|
G]--------------------------------------------------------------------------|
D]--3-3-3-3-3--3-3-3-3-3------------------------3-3-3---3-3-1-1-1-1-1-1-1-1-|
    . . . . .  . . . . .                        . . .   . . . . . . . . . .





Chorus A: (1:32)

Lead
D]-------------------------|
A]----15----13-------------|
F]-12----12----12-15-14-10-|
C]-------------------------|
G]-------------------------|
D]-------------------------|
                           Repeat 4x
Rhythm
D]-------------------------|
A]-------------------------|
F]-------------------------|
C]-------------------------|
G]--5--5--5--5--5--5--33-3-|
D]--3--3--3--3--3--3--11-1-|
                      ..

Chorus B

Lead
D]----------13------------------------13--------------|
A]----15------------------------15--------------------|
F]-12----12----12-15-13------12----12----12-15-13-----|
C]----------------------15------------------------15--|
G]----------------------------------------------------|
D]----------------------------------------------------|

Rhythm
D]----------------------------------------------------|
A]----------------------------------------------------|
F]----------------------------------------------------|
C]----------------------------------------------------|
G]--8--8--8--8--8--8--8--8---10-10-10-10-10-10-10-10--|
D]--6--6--6--6--6--6--6--6----8--8--8--8--8--8--8--8--|


Chorus C

Lead
D]-------------------------|
A]----15----13-------------|
F]-12----12----12-15-14-10-|
C]-------------------------|
G]-------------------------|
D]-------------------------|
                           Repeat 2x
Rhythm
D]-------------------------|
A]-------------------------|
F]-------------------------|
C]-------------------------|
G]--5--5--5--5--5--5--33-3-|
D]--3--3--3--3--3--3--11-1-|
                      ..

                 (((REPEAT CHORUS (ABC) ONE MORE TIME)))



Riff A: (2:03)

Rhythm only.
D]---------------------------------------------------------|
A]---------------------------------------------------------|
F]---------------------------------------------------------|Repeat 4x
C]---------------------------------------------------------|
G]---------------------------------------------------------|
D]--3-3-3-3-3--3-3-3-3-3--------3-3-3--3-3-1-1-1-1-1-1-1-1-|
    . . . . .  . . . . .        . . .  . . . . . . . . . .



Riff A1 with lead. (2:19)

Lead                          Repeat 4x
D]--------------------------------------------------------------------------|
A]----------8--6------------------------8----6----------------------8---6---|
F]--------------------------------------------------------------------------|
C]--5--5-----------5---5---------5----------------5---5---5---5-------------|
G]--------------------------------------------------------------------------|
D]--------------------------------------------------------------------------|

Rhythm
D]--------------------------------------------------------------------------|
A]--------------------------------------------------------------------------|
F]--------------------------------------------------------------------------|
C]--------------------------------------------------------------------------|
G]--------------------------------------------------------------------------|
D]--3-3-3-3-3--3-3-3-3-3------------------------3-3-3---3-3-1-1-1-1-1-1-1-1-|
    . . . . .  . . . . .                        . . .   . . . . . . . . . .



Solo: (2:33)

Lead
D]--------------------------------------------------------------17/---------|
A]18-17-15----------------------------17----18------20----------------------|
F]--------------------------------------------------------------------------|
C]--------------------------------------------------------------------------|
G]--------------------------------------------------------------------------|
D]--------------------------------------------------------------------------|


Rhythm
D]--------------------------------------------------------------------------|
A]--------------------------------------------------------------------------|
F]--------------------------------------------------------------------------|
C]--------------------------------------------------------------------------|
G]-7-----7-----7-----7-----7-----7-----7-----7------10-10-10-10-10-10-10-10-|
D]-5-----5-----5-----5-----5-----5-----5-----5-------8--8--8--8--8--8--8--8-|


Continue Solo

Lead
D]----------------------------------------------------|
A]-20-------------18----17---18-----------20----20----|
F]----------------------------------------------------|
C]----------------------------------------------------|
G]----------------------------------------------------|
D]----------------------------------------------------|

Rhythm
D]----------------------------------------------------|
A]----------------------------------------------------|
F]----------------------------------------------------|
C]----------------------------------------------------|
G]-12-12-12-12-12-12-12-12----10-10-10-10-10-10-10-10-|
D]-10-10-10-10-10-10-10-10-----8--8--8--8--8--8--8--8-|

Continue Solo

Lead
D]--------------------------------------------------------------------------|
A]18-17-15------------------------------------------------------------------|
F]--------------------------------------------------------------------------|
C]------------------------19-------17-------15-----(15)---------15-------19-|
G]--------------------------------------------------------------------------|
D]--------------------------------------------------------------------------|


Rhythm
D]--------------------------------------------------------------------------|
A]--------------------------------------------------------------------------|
F]--------------------------------------------------------------------------|
C]--------------------------------------------------------------------------|
G]-7-----7-----7-----7-----7-----7-----7-----7------10-10-10-10-10-10-10-10-|
D]-5-----5-----5-----5-----5-----5-----5-----5-------8--8--8--8--8--8--8--8-|


Continue Solo (end of first part)

Lead
D]-------------------------------------------------------------------|
A]-------------------------------------------------------------------|
F]-------------------------------------------------------------------|
C]15----14----12------------------------------------12---------------|
G]-------------------------------------------------------------------|
D]-------------------------------------------------------------------|


Rhythm
D]-------------------------------------------------------------------|
A]-------------------------------------------------------------------|
F]-------------------------------------------------------------------|
C]-------------------------------------------------------------------|
G]-7-----7-----7-----7-----7-----7-----7-----7-------7-7-7-7-7-7-7-7-|
D]-5-----5-----5-----5-----5-----5-----5-----5-------5-5-5-5-5-5-5-5-|

Solo 2nd Part: (2:51)


Lead
D]--------------------------------------------------15----------17----20/---|
A]18-17-15----------------------------15----18------------------------------|
F]--------------------------------------------------------------------------|
C]--------------------------------------------------------------------------|
G]--------------------------------------------------------------------------|
D]--------------------------------------------------------------------------|


Rhythm
D]--------------------------------------------------------------------------|
A]--------------------------------------------------------------------------|
F]--------------------------------------------------------------------------|
C]--------------------------------------------------------------------------|
G]-7-----7-----7-----7-----7-----7-----7-----7------10-10-10-10-10-10-10-10-|
D]-5-----5-----5-----5-----5-----5-----5-----5-------8--8--8--8--8--8--8--8-|

Continue solo pt. 2

Lead
D]----------------------------------------17----------|
A]-20-------------18----17----20----------------------|
F]----------------------------------------------------|
C]----------------------------------------------------|
G]----------------------------------------------------|
D]----------------------------------------------------|

Rhythm
D]----------------------------------------------------|
A]----------------------------------------------------|
F]----------------------------------------------------|
C]----------------------------------------------------|
G]-12-12-12-12-12-12-12-12----10-10-10-10-10-10-10-10-|
D]-10-10-10-10-10-10-10-10-----8--8--8--8--8--8--8--8-|

Continue solo pt. 2

Lead
D]--------------------------------------------------------------------------|
A]18-17-15------------------------------------------------------------------|
F]--------------------------------------------------------------------------|
C]------------------------------------19----17------17----------17----19----|
G]--------------------------------------------------------------------------|
D]--------------------------------------------------------------------------|

Rhythm
D]--------------------------------------------------------------------------|
A]--------------------------------------------------------------------------|
F]--------------------------------------------------------------------------|
C]--------------------------------------------------------------------------|
G]-7-----7-----7-----7-----7-----7-----7-----7------10-10-10-10-10-10-10-10-|
D]-5-----5-----5-----5-----5-----5-----5-----5-------8--8--8--8--8--8--8--8-|

Continue solo pt. 2 End of Solo.

Lead
D]--------------------------------------------------------------------------|
A]--------------------------------------------------------------------------|
F]--------------------------------------------------------------------------|
C]15-14-12-----------------------------------------(12)---------------------|
G]--------------------------------------------------------------------------|
D]--------------------------------------------------------------------------|


Rhythm
D]--------------------------------------------------------------------------|
A]--------------------------------------------------------------------------|
F]--------------------------------------------------------------------------|
C]--------------------------------------------------------------------------|
G]-7-----7-----7-----7-----7-----7-----7-----7-------7--7--7--7--7--7--7--7-|
D]-5-----5-----5-----5-----5-----5-----5-----5-------5--5--5--5--5--5--5--5-|





Chorus A: (3:04)

Lead
D]-------------------------|
A]----15----13-------------|
F]-12----12----12-15-14-10-|
C]-------------------------|
G]-------------------------|
D]-------------------------|
                           Repeat 4x
Rhythm
D]-------------------------|
A]-------------------------|
F]-------------------------|
C]-------------------------|
G]--5--5--5--5--5--5--33-3-|
D]--3--3--3--3--3--3--11-1-|
                      ..
Chorus B:

Lead
D]----------13------------------------13-------------|
A]----15------------------------15-------------------|
F]-12----12----12-15-13------12----12----12-15-13----|
C]----------------------15------------------------15-|
G]---------------------------------------------------|
D]---------------------------------------------------|

Rhythm
D]---------------------------------------------------|
A]---------------------------------------------------|
F]---------------------------------------------------|
C]---------------------------------------------------|
G]--8--8--8--8--8--8--8--8---10-10-10-10-10-10-10-10-|
D]--6--6--6--6--6--6--6--6----8--8--8--8--8--8--8--8-|

Chorus C:

Lead
D]-------------------------|
A]----15----13-------------|
F]-12----12----12-15-14-10-|
C]-------------------------|
G]-------------------------|
D]-------------------------|
                           Repeat 2x
Rhythm
D]-------------------------|
A]-------------------------|
F]-------------------------|
C]-------------------------|
G]--5--5--5--5--5--5--33-3-|
D]--3--3--3--3--3--3--11-1-|
                      ..

                  (((REPEAT CHORUS (ABC) ONE MORE TIME)))

Chorus 2A Ending: (3:36)

Lead
D]-------------------------|
A]----12----10-------------|
F]--9-----9-----9-12-11--7-|
C]-------------------------|
G]-------------------------|
D]-------------------------|
                           Repeat 4x
Rhythm
D]-------------------------|
A]-------------------------|
F]-------------------------|
C]--9--9--9--9--9--9--9--7-|
G]--7--7--7--7--7--7--7--5-|
D]-------------------------|

Chorus 2B:

Lead
D]----------10------------------------10-------------|
A]----12------------------------12-------------------|
F]--9-----9-----9-12-10-------9-----9-----9-12-10----|
C]----------------------12------------------------12-|
G]---------------------------------------------------|
D]---------------------------------------------------|

Rhythm
D]---------------------------------------------------|
A]---------------------------------------------------|
F]---------------------------------------------------|
C]---------------------------------------------------|
G]-10-10-10-10-10-10-10-10---12-12-12-12-12-12-12-12-|
D]--8--8--8--8--8--8--8--8---10-10-10-10-10-10-10-10-|

Chorus 2C:

Lead
D]-------------------------|
A]----12----10-------------|
F]--9-----9-----9-12-11--7-|
C]-------------------------|
G]-------------------------|
D]-------------------------|
                           Repeat 2x
Rhythm
D]-------------------------|
A]-------------------------|
F]-------------------------|
C]--9--9--9--9--9--9--9--7-|
G]--7--7--7--7--7--7--7--5-|
D]-------------------------|

                 (((REPEAT CHORUS 2 (ABC) ONE MORE TIME)))

End.

            
            
Suggest correction
Creating personal tab
Creating personal tab
You can edit any tab online and save it as your Personal.

You can edit, replace or remove any tab part or add personal notes – all changes will be seen only by you.

Personal tabs can be accessed anytime from any device, even offline.
Learn more »
Give kudos to tab author, rate the tab!
1 2 3 4 5
comments
print report bad tab
guest
You may want to rate the tab now too:
select rating
Wanna post a correction for this tab? Suggest correction