Oops, an error
Loading. Please wait.

Silver Bride tab

version 4
version 4

Whole song

Interactive

232 views 1 this week
no commentswrite comment
1 2 3 4 5
3 more votes to show rating
add to favorites
×
Save as Personal and add changes to this tab that will be seen only by you. Learn more ›
×
You can save this tab as Personal to edit and correct it or add notes. All changes will be seen only by you. Learn more »
launch autoscroll
font size
0
reset
how to read this tab
guitar tuner
edit
Autoscroll
slow
fast
+/-
esc
set tempo
stop
Tab timing: each character = 1/32 note  (i.e. straight eighth notes in intro/chorus riff)


[Intro]

Bass solo (16 measures)


[Chorus]

     Guitar 1 (legato)          4x                               
E|--------------------------------||------------11------------------|------------11------------------||
B|----13------11------9-----------||----13--------------13--11------|----13--------------13--11------||
G|10------10------10------12------||10------10------10----------13--|10------10------10----------13--||
D|----------------------------13--||--------------------------------|--------------------------------||
A|--------------------------------||--------------------------------|--------------------------------||
D|--------------------------------||--------------------------------|--------------------------------||
 |   Guitar 2
E|--------------------------------||--------------------------------|--------------------------------||
B|--------------------------------||--------------------------------|--------------------------------||
G|--------------------------------||--------------------------------|--------------------------------||
D|3---3---3---3---3---3---3---1---||6---6---6---6---6---6---6---6---|8---8---8---8---8---8---8---8---||
A|3---3---3---3---3---3---3---1---||6---6---6---6---6---6---6---6---|8---8---8---8---8---8---8---8---||
D|3---3---3---3---3---3---3---1---||6---6---6---6---6---6---6---6---|8---8---8---8---8---8---8---8---||

                               2x
e||--------------------------------||
B||----13------11------9-----------||
G||10------10------10------12------||
D||----------------------------13--||
A||--------------------------------||
D||--------------------------------||
 ||   Guitar 2
e||--------------------------------||
B||--------------------------------||
G||--------------------------------||
D||3---3---3---3---3---3---3---1---||
A||3---3---3---3---3---3---3---1---||
D||3---3---3---3---3---3---3---1---||


Repeat:


     Guitar 1 (legato)          4x                               
E|--------------------------------||------------11------------------|------------11------------------||
B|----13------11------9-----------||----13--------------13--11------|----13--------------13--11------||
G|10------10------10------12------||10------10------10----------13--|10------10------10----------13--||
D|----------------------------13--||--------------------------------|--------------------------------||
A|--------------------------------||--------------------------------|--------------------------------||
D|--------------------------------||--------------------------------|--------------------------------||
 |   Guitar 2
E|--------------------------------||--------------------------------|--------------------------------||
B|--------------------------------||--------------------------------|--------------------------------||
G|--------------------------------||--------------------------------|--------------------------------||
D|3---3---3---3---3---3---3---1---||6---6---6---6---6---6---6---6---|8---8---8---8---8---8---8---8---||
A|3---3---3---3---3---3---3---1---||6---6---6---6---6---6---6---6---|8---8---8---8---8---8---8---8---||
D|3---3---3---3---3---3---3---1---||6---6---6---6---6---6---6---6---|8---8---8---8---8---8---8---8---||

                               2x
e||--------------------------------||
B||----13------11------9-----------||
G||10------10------10------12------||
D||----------------------------13--||
A||--------------------------------||
D||--------------------------------||
 ||   Guitar 2
e||--------------------------------||
B||--------------------------------||
G||--------------------------------||
D||3---3---3---3---3---3---3---1---||
A||3---3---3---3---3---3---3---1---||
D||3---3---3---3---3---3---3---1---||


[Verse]

(Both guitars at first)
                                                                 4x
e||--------------------------------|--------------------------------||
B||--------------------------------|--------------------------------||
G||--------------------------------|--------------------------------||
D||--------------------------------|--------------------------------||
A||--------------------------------|--------------------------------||
D||3-3-3-3-3---3-3-3-3-3-----------|----3-3-3---3-3-1-1-1-1-1-1-1-1-||
PM . . . . .   . . . . .                . . .   . . . . . . . . . . 

Then Guitar 2 repeats the riff above while Guitar 1 plays this:

                                                                 4x
e||--------------------------------|--------------------------------||
B||--------6-----------------------|6-----------------------6-------||
G||----------- 8---5---------------|----8---5-------------------8--.||
D||5---5---------------5-------5---|------------5---5---5----------.||
A||--------------------------------|--------------------------------||
D||--------------------------------|--------------------------------||
PM .   .               .       .                .   .   .

From the mystic dream of a nighttime
I saw the clarity of my days
From the gates of longing
Looked for the familiar glow
The death of my wife's slayer
Brought no comfort to me
No shape for loneliness
For a dream

        
[Chorus]

     Guitar 1 (legato)          4x                               
E|--------------------------------||------------11------------------|------------11------------------||
B|----13------11------9-----------||----13--------------13--11------|----13--------------13--11------||
G|10------10------10------12------||10------10------10----------13--|10------10------10----------13--||
D|----------------------------13--||--------------------------------|--------------------------------||
A|--------------------------------||--------------------------------|--------------------------------||
D|--------------------------------||--------------------------------|--------------------------------||
 |   Guitar 2
E|--------------------------------||--------------------------------|--------------------------------||
B|--------------------------------||--------------------------------|--------------------------------||
G|--------------------------------||--------------------------------|--------------------------------||
D|3---3---3---3---3---3---3---1---||6---6---6---6---6---6---6---6---|8---8---8---8---8---8---8---8---||
A|3---3---3---3---3---3---3---1---||6---6---6---6---6---6---6---6---|8---8---8---8---8---8---8---8---||
D|3---3---3---3---3---3---3---1---||6---6---6---6---6---6---6---6---|8---8---8---8---8---8---8---8---||

                               2x
e||--------------------------------||
B||----13------11------9-----------||
G||10------10------10------12------||
D||----------------------------13--||
A||--------------------------------||
D||--------------------------------||
 ||   Guitar 2
e||--------------------------------||
B||--------------------------------||
G||--------------------------------||
D||3---3---3---3---3---3---3---1---||
A||3---3---3---3---3---3---3---1---||
D||3---3---3---3---3---3---3---1---||


Repeat:


     Guitar 1 (legato)          4x                               
E|--------------------------------||------------11------------------|------------11------------------||
B|----13------11------9-----------||----13--------------13--11------|----13--------------13--11------||
G|10------10------10------12------||10------10------10----------13--|10------10------10----------13--||
D|----------------------------13--||--------------------------------|--------------------------------||
A|--------------------------------||--------------------------------|--------------------------------||
D|--------------------------------||--------------------------------|--------------------------------||
 |   Guitar 2
E|--------------------------------||--------------------------------|--------------------------------||
B|--------------------------------||--------------------------------|--------------------------------||
G|--------------------------------||--------------------------------|--------------------------------||
D|3---3---3---3---3---3---3---1---||6---6---6---6---6---6---6---6---|8---8---8---8---8---8---8---8---||
A|3---3---3---3---3---3---3---1---||6---6---6---6---6---6---6---6---|8---8---8---8---8---8---8---8---||
D|3---3---3---3---3---3---3---1---||6---6---6---6---6---6---6---6---|8---8---8---8---8---8---8---8---||

                               2x
e||--------------------------------||
B||----13------11------9-----------||
G||10------10------10------12------||
D||----------------------------13--||
A||--------------------------------||
D||--------------------------------||
 ||   Guitar 2
e||--------------------------------||
B||--------------------------------||
G||--------------------------------||
D||3---3---3---3---3---3---3---1---||
A||3---3---3---3---3---3---3---1---||
D||3---3---3---3---3---3---3---1---||

A queen of gold I made
A silver bride I built
From the northern summer nights
From the winter moon
Responded not my girl
No beating heart I felt
I brought no sighs to the silver lips
No warmth to the gold


[Verse]

(Both guitars at first)
                                                                 4x
e||--------------------------------|--------------------------------||
B||--------------------------------|--------------------------------||
G||--------------------------------|--------------------------------||
D||--------------------------------|--------------------------------||
A||--------------------------------|--------------------------------||
D||3-3-3-3-3---3-3-3-3-3-----------|----3-3-3---3-3-1-1-1-1-1-1-1-1-||
PM . . . . .   . . . . .                . . .   . . . . . . . . . . 

Then Guitar 2 repeats the riff above while Guitar 1 plays this:

                                                                 4x
e||--------------------------------|--------------------------------||
B||--------6-----------------------|6-----------------------6-------||
G||----------- 8---5---------------|----8---5-------------------8--.||
D||5---5---------------5-------5---|------------5---5---5----------.||
A||--------------------------------|--------------------------------||
D||--------------------------------|--------------------------------||
PM .   .               .       .                .   .   .

Within my heart a flame of desires
Provoked the power of my will
Forced into silvery shape
A golden queen for me
I made our bed under the stars
Covers a-plenty, bear skin hides
Stroked the arc of golden curves
Kissed the lips of silver


[Solo]

Guitar 1 (sustain all)      
                                   
   C5                              Eb5  (w/ whammy bar)       
e|--------------------------------|13--------------15-/18\15-------|
B|161513------------------15--16--|--------------------------------|
G|--------------------------------|--------------------------------|
D|--------------------------------|--------------------------------|
A|--------------------------------|--------------------------------|
D|--------------------------------|--------------------------------|

 F5                               Bb5                             
e|13------------------------------|----------------13------13------|
B|----------------16------15------|16------------------------------|
G|--------------------------------|--------------------------------|
D|--------------------------------|--------------------------------|
A|--------------------------------|--------------------------------|
D|--------------------------------|--------------------------------|
 
 F5 (low)                         Bb5                                        
e|--------------------------------|--------------------------------|
B|161513--------------------------|--------------------------------|
G|----------------12--------------|--------------------------------|
D|------------------------15\\13--|13--------------15----//17-\\\\-|
A|--------------------------------|--------------------------------|
D|--------------------------------|--------------------------------|
  
 C5                                                        
e|--------------------------------|--------------------------------|
B|--------------------------------|--------------------------------|
G|--------------------------------|--------------------12--12--12--|
D|131210--------------------------|--------------------------------|
A|--------------------------------|--------------------------------|
D|--------------------------------|--------------------------------|
                            
 C5                               Eb5            (w/ bar)     
e|--------------------------------|13--------------15//18--18------|
B|161513------------------15--16--|--------------------------------|
G|--------------------------------|--------------------------------|
D|--------------------------------|--------------------------------|
A|--------------------------------|--------------------------------|
D|--------------------------------|--------------------------------|
 
 F5                               Bb5                                            
e|13------------------------------|13----------------15-----15-----|
B|----------------16------15--16--|--------------------------------|
G|--------------------------------|--------------------------------|
D|--------------------------------|--------------------------------|
A|--------------------------------|--------------------------------|
D|--------------------------------|--------------------------------|
                              
 F5 (low)                          Bb5                             
e|--------------------------------|--------------------------------|
B|161513--------------------------|--------------------------------|
G|------------------------12\\10--|10--------------8///12--12------|
D|--------------------------------|--------------------------------|
A|--------------------------------|--------------------------------|
D|--------------------------------|--------------------------------|
                                                      
 C5                              (fades into same note octave up)
e|--------------------------------|--------------------------------|
B|--------------------------------|--------------------------------|
G|--------------------------------|--------------------------------|
D|131210--10--10--10--10--10--10--|10--10--10--10--10--10--10--10--|
A|--------------------------------|--------------------------------|
D|--------------------------------|--------------------------------|


[Chorus]

     Guitar 1 (legato)          4x                               
E|--------------------------------||------------11------------------|------------11------------------||
B|----13------11------9-----------||----13--------------13--11------|----13--------------13--11------||
G|10------10------10------12------||10------10------10----------13--|10------10------10----------13--||
D|----------------------------13--||--------------------------------|--------------------------------||
A|--------------------------------||--------------------------------|--------------------------------||
D|--------------------------------||--------------------------------|--------------------------------||
 |   Guitar 2
E|--------------------------------||--------------------------------|--------------------------------||
B|--------------------------------||--------------------------------|--------------------------------||
G|--------------------------------||--------------------------------|--------------------------------||
D|3---3---3---3---3---3---3---1---||6---6---6---6---6---6---6---6---|8---8---8---8---8---8---8---8---||
A|3---3---3---3---3---3---3---1---||6---6---6---6---6---6---6---6---|8---8---8---8---8---8---8---8---||
D|3---3---3---3---3---3---3---1---||6---6---6---6---6---6---6---6---|8---8---8---8---8---8---8---8---||

                               2x
e||--------------------------------||
B||----13------11------9-----------||
G||10------10------10------12------||
D||----------------------------13--||
A||--------------------------------||
D||--------------------------------||
 ||   Guitar 2
e||--------------------------------||
B||--------------------------------||
G||--------------------------------||
D||3---3---3---3---3---3---3---1---||
A||3---3---3---3---3---3---3---1---||
D||3---3---3---3---3---3---3---1---||


Repeat:


     Guitar 1 (legato)          4x                               
E|--------------------------------||------------11------------------|------------11------------------||
B|----13------11------9-----------||----13--------------13--11------|----13--------------13--11------||
G|10------10------10------12------||10------10------10----------13--|10------10------10----------13--||
D|----------------------------13--||--------------------------------|--------------------------------||
A|--------------------------------||--------------------------------|--------------------------------||
D|--------------------------------||--------------------------------|--------------------------------||
 |   Guitar 2
E|--------------------------------||--------------------------------|--------------------------------||
B|--------------------------------||--------------------------------|--------------------------------||
G|--------------------------------||--------------------------------|--------------------------------||
D|3---3---3---3---3---3---3---1---||6---6---6---6---6---6---6---6---|8---8---8---8---8---8---8---8---||
A|3---3---3---3---3---3---3---1---||6---6---6---6---6---6---6---6---|8---8---8---8---8---8---8---8---||
D|3---3---3---3---3---3---3---1---||6---6---6---6---6---6---6---6---|8---8---8---8---8---8---8---8---||

                               2x
e||--------------------------------||
B||----13------11------9-----------||
G||10------10------10------12------||
D||----------------------------13--||
A||--------------------------------||
D||--------------------------------||
 ||   Guitar 2
e||--------------------------------||
B||--------------------------------||
G||--------------------------------||
D||3---3---3---3---3---3---3---1---||
A||3---3---3---3---3---3---3---1---||
D||3---3---3---3---3---3---3---1---||

A queen of gold I made
A silver bride I built
From the northern summer nights
From the winter moon
Responded not my girl
No beating heart I felt
I brought no sighs to the silver lips
No warmth to the gold


[Refrain]
                                                         
      Guitar 1 (legato)          4x                               
E||--------------------------------||------------8-------------------|------------8-------------------||
B||----10------8-------6-----------||----10--------------10--8-------|----10--------------10--8-------||
G||7-------7-------7-------9-------||7-------7-------7-----------10--|7-------7-------7-----------10--||
D||----------------------------10--||--------------------------------|--------------------------------||
A||--------------------------------||--------------------------------|--------------------------------||
D||--------------------------------||--------------------------------|--------------------------------||
 ||   Guitar 2                                                                                        ||
E||--------------------------------||--------------------------------|--------------------------------||
B||--------------------------------||--------------------------------|--------------------------------||
G||7---7---7---7---7---7---7---5---||5---5---5---5---5---5---5---5---|7---7---7---7---7---7---7---7---||
D||7---7---7---7---7---7---7---5---||3---3---3---3---3---3---3---3---|5---5---5---5---5---5---5---5---||
A||5---5---5---5---5---5---5---3---||3---3---3---3---3---3---3---3---|5---5---5---5---5---5---5---5---||
D||0---0---0---0---0---0---0-------||3---3---3---3---3---3---3---3---|5---5---5---5---5---5---5---5---||

                               2x
e||--------------------------------||
B||----10------8-------6-----------||
G||7-------7-------7-------9-------||
D||----------------------------10--||
A||--------------------------------||
D||--------------------------------||
 ||   Guitar 2                     ||
e||--------------------------------||
B||--------------------------------||
G||7---7---7---7---7---7---7---5---||
D||7---7---7---7---7---7---7---5---||
A||5---5---5---5---5---5---5---3---||
D||0---0---0---0---0---0---0-------||

Repeat:

      Guitar 1 (legato)          4x                               
E||--------------------------------||------------8-------------------|------------8-------------------||
B||----10------8-------6-----------||----10--------------10--8-------|----10--------------10--8-------||
G||7-------7-------7-------9-------||7-------7-------7-----------10--|7-------7-------7-----------10--||
D||----------------------------10--||--------------------------------|--------------------------------||
A||--------------------------------||--------------------------------|--------------------------------||
D||--------------------------------||--------------------------------|--------------------------------||
 ||   Guitar 2                                                                                        ||
E||--------------------------------||--------------------------------|--------------------------------||
B||--------------------------------||--------------------------------|--------------------------------||
G||7---7---7---7---7---7---7---5---||5---5---5---5---5---5---5---5---|7---7---7---7---7---7---7---7---||
D||7---7---7---7---7---7---7---5---||3---3---3---3---3---3---3---3---|5---5---5---5---5---5---5---5---||
A||5---5---5---5---5---5---5---3---||3---3---3---3---3---3---3---3---|5---5---5---5---5---5---5---5---||
D||0---0---0---0---0---0---0-------||3---3---3---3---3---3---3---3---|5---5---5---5---5---5---5---5---||

                               2x
e||--------------------------------||
B||----10------8-------6-----------||
G||7-------7-------7-------9-------||
D||----------------------------10--||
A||--------------------------------||
D||--------------------------------||
 ||   Guitar 2                     ||
e||--------------------------------||
B||--------------------------------||
G||7---7---7---7---7---7---7---5---||
D||7---7---7---7---7---7---7---5---||
A||5---5---5---5---5---5---5---3---||
D||0---0---0---0---0---0---0-------||

A queen of gold - I made her
A silver bride - I built her
A queen of gold - no heart
A silver bride - no warmth

No life



************************************

| /  Slide up
| \  Slide down
| .  Palm mute

************************************

            
            
Suggest correction
Creating personal tab
Creating personal tab
You can edit any tab online and save it as your Personal.

You can edit, replace or remove any tab part or add personal notes – all changes will be seen only by you.

Personal tabs can be accessed anytime from any device, even offline.
Learn more »
Give kudos to tab author, rate the tab!
1 2 3 4 5
comments
print report bad tab
guest
You may want to rate the tab now too:
select rating
Wanna post a correction for this tab? Suggest correction