Oops, an error
Loading. Please wait.

I Heard Love Is Blind chords

version 3
version 3

Whole song

16,684 views 108 this week
no commentswrite comment
1 2 3 4 5
x 24
add to favorites
×
Save as Personal and add changes to this tab that will be seen only by you. Learn more ›
×
You can save this tab as Personal to edit and correct it or add notes. All changes will be seen only by you. Learn more »
launch autoscroll
font size
0
reset
transpose
0
reset
simplify chords
display chords
guitar tuner
edit
Autoscroll
slow
fast
+/-
esc
set tempo
stop
Author
Difficulty
intermediate
Strumming
There is no strumming pattern for this song yet. and get +5 IQ
     Dmaj7  Dmaj7 \ C#maj7 \ Cmaj7  Cmaj7 / C#maj7 / Dmaj7  F#m7-5   B7+5   Em7   Gdim   sequence x2
e|---------------------------------------------------------------------------7------6--------------|
B|-----7------7-------6--------5------5--------6-------7------10------8------8------8--------------|
G|-----6------6-------5--------4------4--------5-------6-------9------8------7------6--------------|
D|-----7------7-------6--------5------5--------6-------7------10------7------9------8--------------|
A|-----5------5-------4--------3------3--------4-------5-------9------x------7---------------------|
E|--------------------------------------------------------------------7----------------------------|


     Dmaj7  Gadd9     A7     F#m7    B9    E9    A13    F#m7    B9    E9    A13    Dmaj7   repeat from
e|-------------------------------------------------------------------------------------------start-|
B|-----7------3-------2-------2------2-----7------7------2------2-----7------7-------7-------------|
G|-----6------4-------2-------2------2-----7------6------2------2-----7------6-------6-------------|
D|-----7------5-------5-------2------1-----6------5------2------1-----6------5-------7-------------|
A|-----5------x-------x-------x------2-----7------x------x------2-----7------x-------5-------------|
E|------------5-------5-------2-------------------5--------------------------5---------------------|

             Dmaj7     E9       Em9      A13      Dmaj7

last line -  " I      heard     love      is      blind "          End.
e|--------------------------------------------------------------------|
B|-------------7--------7--------7--------7---------7~ ---------------|
G|-------------6--------7--------7--------6---------6~ ---------------|
D|-------------7--------6--------5--------5---------7~ ---------------|
A|-------------5--------7--------7--------x---------5~ ---------------|
E|----------------------------------------5---------------------------|

Dmaj7  C#maj7 Cmaj7
Cmaj7  C#maj7 Dmaj7
F#m7-5 B7+5   Em7    Gdim  x2

Dmaj7  Gadd9  A7     F#m7  B9
E9     A13    F#m7   B9
E9     A13    Dmaj7 
 
Dmaj7  E9     Em9    A13   Dmaj7

             
[Verse]
      
I couldn't resist him 
His eyes were like yours 
His hair was exactly the shade of brown

He's just not as tall 
But I couldn't tell 
It was dark and I was lying down

You are everything 
He means nothing to me 
I can't even remember his name

Why're you so upset? 
Baby, you weren't there 
And I was thinking of you when I came

What do you expect? 
You left me here alone 
I drank so much and needed to touch

Don't overreact 
I pretended he was you 
You wouldn't want me to be lonely

How can I put it so you understand? 
I didn't let him hold my hand 
But he looked like you 
I guess he looked like you 
No, he wasn't you

But you can still trust me 
This ain't infidelity 
It's not cheating 
Oh, you were on my mind


[Outro]

Yes, he looked like you 
But I heard love is blind

;)

            
            
Suggest correction
Creating personal tab
Creating personal tab
You can edit any tab online and save it as your Personal.

You can edit, replace or remove any tab part or add personal notes – all changes will be seen only by you.

Personal tabs can be accessed anytime from any device, even offline.
Learn more »
comments
print report bad tab
guest
You may want to rate the tab now too:
select rating
Wanna post a correction for this tab? Suggest correction