Oops, an error
Loading. Please wait.
We have Chord Pro version of Valerie.
It's the closest thing you can get to the original song and it has interactive parts. Check out the tab »
×
1,732 views 12 this week
no commentswrite comment
1 2 3 4 5
1 last vote to show rating
add to favorites
×
Save as Personal and add changes to this tab that will be seen only by you. Learn more ›
×
You can save this tab as Personal to edit and correct it or add notes. All changes will be seen only by you. Learn more »
launch autoscroll
font size
0
reset
guitar tuner
edit
Autoscroll
slow
fast
+/-
esc
set tempo
stop
Artist: Amy Winehouse and Mark Ronson
Song: Valerie


Tabbed by: Alex Kehoe
www.alexkehoe.co.uk



INTRO
G|-----------------------------------------------------------|
D|--------------------------------------------------------6-8|
A|6--6-x6-x6-6--x6--6-x6-x6-6--x6--6-x6-x6-6--x6--6-x6-x6----|
E|-----------------------------------------------------------|


VERSE ONE
G|-------------------------------------------------------------|
D|-------------------------------------------------------------|
A|6--6-x6-x6-6--x6--6-x6-x6-6-7-8--8-x8-x8-8--x8--8-x8-x8-8--7-|
E|-------------------------------------------------------------|

G|-------------------------------------------------------------|
D|-------------------------------------------------------7h8-7-|
A|6--6-x6-x6-6--x6--6-x6-x6-6-7-8--8-x8-x8-8--x8--8-x8-x8------|
E|-------------------------------------------------------------|


PRE CHORUS ONE 
x3
G|--------------------------|
D|6--6-x6-x6-6--5--5-x5-x5-5|
A|--------------------------|
E|--------------------------|

x1
G|-------------------------------------------------------------------|
D|6--6-x6-x6-6--5--5-x5-x5-5-5-6-6-8--8-x8-x8-8---8--8-x8-x8-6-6--5--|
A|------------------------------------------------------------------8|
E|-------------------------------------------------------------------|


CHORUS ONE
G|-------------------------------------------------------------|
D|-------------------------------------------------------------|
A|6--6-x6-x6-6--x6--6-x6-x6-6-7-8--8-x8-x8-8--x8--8-x8-x8-8--7-|
E|-------------------------------------------------------------|

G|----------------------------------------------------------------|
D|-------------------------------------------------------8h10 10\-|
A|6--6-x6-x6-6--x6--6-x6-x6-6-7-8--8-x8-x8-8--x8--8-x8-x8---------|
E|----------------------------------------------------------------|


VERSE TWO
G|-------------------------------------------------------------|
D|-------------------------------------------------------------|
A|------------------------------------------------------8-8--7-|
E|-------------------------------------------------------------|

G|-------------------------------------------------------------|
D|-------------------------------------------------------------|
A|6--6-x6-x6-6--x6--6-x6-x6-6-7-8--8-x8-x8-8--x8--8-x8-x8-8-7--|
E|-------------------------------------------------------------|

G|-------------------------------------------------------------|
D|-------------------------------------------------------------|
A|6--6-x6-x6-6--x6--6-x6-x6-6-7-8--8-x8-x8-8--x8--8-x8-x8-8--7-|
E|-------------------------------------------------------------|

G|-----------------------------------------------------------|
D|----------------------------------------------------8-8-8--|
A|6--6-x6-x6-6--x6--6-x6-x6-6-7-8--8-x8-x8-8--x8--8-x8-------|
E|-----------------------------------------------------------|


PRE CHORUS TWO
x3
G|--------------------------|
D|6--6-x6-x6-6--5--5-x5-x5-5|
A|--------------------------|
E|--------------------------|

x1
G|-----------------------------------------------------------------------------|
D|6--6-x6-x6-6--5--5-x5-x5-5-5-6-6-8--8-x8-x8-8---8--8-x8-x8---------8-6-5-----|
A|---------------------------------------------------------------8-8-------8--7|
E|-----------------------------------------------------------6-6---------------|


CHORUS TWO
x2
G|-------------------------------------------------------------|
D|-------------------------------------------------------------|
A|6--6-x6-x6-6--x6--6-x6-x6-6-7-8--8-x8-x8-8--x8--8-x8-x8-8--7-|
E|-------------------------------------------------------------|


BRIDGE
G|-------------------------------------------------------------|
D|-------------------------------------------------------------|
A|6--6-x6-x6-6--x6--6-x6-x6-6-7-8--8-x8-x8-8--x8--8-x8-x8-8--7-|
E|-------------------------------------------------------------|

G|-----------------------------------------------------------|
D|----------------------------------------------------8-8-8--|
A|6--6-x6-x6-6--x6--6-x6-x6-6-7-8--8-x8-x8-8--x8--8-x8-------|
E|-----------------------------------------------------------|


PRE CHORUS THREE
G|----------------------------------------------------------------------------|
D|6--6-x6-x6-6--5--5-x5-x5-5-5-6-6-8--8-x8-x8-8---8--8-x8-x8--------88--6-5---|
A|-----------------------------------------------------------x8---8---------8-|
E|--------------------------------------------------------------6-------------|


REPEAT UNTIL END
x1
G|------------------------------------------------------------------|
D|------------------------------------------------------------------|
A|6--6-x6-x6-6--x6--6-x6-x6----------8--8-x8-x8-8--x8--8-x8-x8-8--7-|
E|--------------------------44-66-----------------------------------|


x3
G|-------------------------------------------------------------|
D|-------------------------------------------------------------|
A|6--6-x6-x6-6--x6--6-x6-x6-6-7-8--8-x8-x8-8--x8--8-x8-x8-8--7-|
E|-------------------------------------------------------------|

G|---|
D|---|
A|6~-|
E|---|


| /  slide up
| \  slide down
| h  hammer-on 
| p  pull-off 
| ~  vibrato 
| +  harmonic 
| x  Mute note
| S  Slap
| P  Pop

Tabbed by: Alex Kehoe
www.alexkehoe.co.uk

            
            
Suggest correction
Creating personal tab
Creating personal tab
You can edit any tab online and save it as your Personal.

You can edit, replace or remove any tab part or add personal notes – all changes will be seen only by you.

Personal tabs can be accessed anytime from any device, even offline.
Learn more »
Give kudos to tab author, rate the tab!
1 2 3 4 5
comments
print report bad tab
guest
You may want to rate the tab now too:
select rating
Wanna post a correction for this tab? Suggest correction