Oops, an error
Loading. Please wait.

Anything bass

version 1
version 1

Whole song

Interactive

635 views 1 this week
no commentswrite comment
1 2 3 4 5
3 more votes to show rating
add to favorites
×
Save as Personal and add changes to this tab that will be seen only by you. Learn more ›
×
You can save this tab as Personal to edit and correct it or add notes. All changes will be seen only by you. Learn more »
launch autoscroll
font size
0
reset
guitar tuner
backing track
0:00
0:00
edit
Autoscroll
slow
fast
+/-
esc
set tempo
stop
Author
Difficulty
An Endless Sporadic - Anything (Ameliorate)
185/80/125/250 BPM - 4/4|2/4
4-string bass - Drop-D tuning (DADG)
Transcribed 100% by ear by Krakenbrau
Please send questions, comments, corrections to krakenbrau@gmail.com.

Legend:                 Timing:
\ - slide/bend down     W - whole note          W. - dotted whole note
/ - slide/bend up       H - half note           H. - dotted half note
b - bend                Q - quarter note        Q. - dotted quarter note
h - hammer-on           E - eighth note         E. - dotted eighth note
p - pull-off            S - sixteenth note      S. - dotted sixteenth note
~ - sustain             N - thirty-second note  N. - dotted thirty-second note
+ - harmonic            ' - thirty-second note triplet (3/S)
                        t - sixteenth note triplet (3/E)
                        T - eighth note triplet (3/Q)
                        T.- quarter note triplet (3/H)

'D.S. al Coda' - Return to the bar marked 'S' and play from there. Go to the
                 section marked 'Coda' when you see 'To Coda'.
'Rit.' - Slow down

Notes:
Listen to the song closely to get the timings.  Not always the same as
the guitar/drums.  Also, sorry for no section titles.  I couldn't
think of how I would do it, so.


 |185 BPM, 4/4
G|------------|-----------------|-----------------|------------------|
D||_____8____||-----------------|-----------------|------------------|
A||          ||-5-5-----5-----5-|-----5-----------|-3-3-3-3-3-3-3-3--|
D|------------|-----0-0---0-0---|-0-0---0-0-0-0-0-|------------------|
  (rest 8 bars) E E E E E E E E   E E E E E E E E   E E E E E E E E

                                                   |S
G|-----------------|----------------|--------------|------------------|
D|-----------------|----------------|--------------|*-----------------|
A|-3-3-3-3-3-3-3-3-|--------------3-|---3~~~~~~~~--|*-----------------|
D|-----------------|-3-3---0--0-0---|--------------|--0-6-4-0-4-0-6-4-|
   E E E E E E E E   E E E Q  E E E   E E (H.)        E E E E E E E E

                       |1                                  1|2
G|---------------------|-----------------|------------------|-----------------|
D|---------------------|-----------------|-----------------*|-----------------|
A|---------------------|-4-----2---------|-4-----2-----2---*|-4-----2---------|
D|-0-4-0-6-4-0-4-5-6-7-|---4-0---4-0-0-0-|---4-0---4-0---0--|---4-0---4-0-0-6~|
   E E E E E E S S S S   E E E E E E E E   E E E E E E E E    E E E E E E E E

G|------------------|----------------------|
D|------------------|----------------------|
A|----------5-4-----|----------------------|
D|~~~-7-3-5-----3-0-|-0-18-16-0-16-0-18-16-|
  (E) E E E E E E E   E  E  E E  E E  E  E

                                        |To Coda
G|--------------------|-----------------|
D|--------------------|-----------------|
A|--------------------|-----------------|
D|-0-14-0-12-0-10-0-8-|-8-8-8-8-8-8-8-8-|
   E  E E  E E  E E E   E E E E E E E E

G|-----------------|------------------|-----------------|-------------------|
D|-----------------|*-----------------|-----------------|-------------------|
A|-----------------|*-----------------|-----------------|-------------------|
D|-8-8-8-8-8-8-8-8-|--0-0-------0-0---|-----0-0-0-----8~|~~~~-8-------8-8-6-|
   E E E E E E E E    E E E E E E E E   E E E E E E E E   (E) E E E E E E E

G|----------------|---------------------|-----------------|--------------------|
D|----------------|---------------------|-----------------|--------------------|
A|----------------|---------------------|-----------------|--------------------|
D|-------6--4---0~|~~~~-0-------0-0-0---|-----0-0-0-----8~|~~~~-8-------8-8-6--|
   E E E Q  E E E   (E) E E E E S S E E   E E E E E E E E   (E) E E E E E E E

 |1                1|2                 |D.S. al Coda
G|------------------|------------------|
D|-----------------*|------------------|
A|-----------------*|------------------|
D|---9-8---9-8---0--|-----9-----9---0--|
   E E E E E E E E    E E E E E E E E

 |Coda
G|----------------|------------------|----------------|---------4--4-6-7-|
D|----------------|------------------|------------5-6~|~~~~-6-8----------|
A|----------------|-------1-2--2-4-5-|-5-5-7-8--8-----|------------------|
D|-0-0-2-3--3-5-6~|~~~~-6------------|----------------|------------------|
   E E E Q  E E E   (E) E E Q  E E E   E E E Q  E E E   (E) E E Q  E E E

 |6/4              |4/4
G|-----------------|------------------|------------------|
D|-----------------|*-----------------|------------------|
A|-----------------|*-5-5-------5-5-5-|-------5-5-5------|
D|-----------------|------0-0-0-------|-0-0-0-------0-0--|
   W           H      E E E E E E E E   E E E E E E E E

G|----------------|-------------------|-----------------|-----------------|
D|----------------|-------------------|-----------------|-----------------|
A|----------------|-------------------|-5-5-------5-5-5-|-------5-5-5-----|
D|-8-8---8--8---3~|~~~~-0-3-0-3-5-3-0-|-----0-0-0-------|-0-0-0-------0-0-|
   E E E Q  E E E   (E) E E E E E E E   E E E E E E E E   E E E E E E E E

 |1                                  1|2
G|----------------|-------------------|----------|------|
D|----------------|------------------*|----------|------|
A|--------------3~|~~~~-3------------*|----------|------|
D|-8-8---8--8-----|---------3--5-3-0--|-8--------|-6----|
   E E E Q  E E E   (E) E E Q  E E E    W          W

 |80 BPM, 2/4
G|-----------------|-----------------|-------------------|---------------|
D|-----------------|-----------------|-------------------|---------------|
A|-----------------|-----------------|-------------------|---------------|
D|-0-0-------0-0---|-----0-0-0-----8~|~~~~-8-------8-8-6-|-------6---4---|
   S S S S S S S S   S S S S S S S S   (S) S S S S S S S   S S S S S S E

G|-----------|----------|---------------|-------------------|
D|-----------|----------|---------------|-------------------|
A|-----------|----------|------5---10p9~|~~~~~~~~~~~~-9h10h=|
D|-----------|----------|-0-------------|-------------------|
   H           H          E.   S E  S S   (Q.)    (S) N  N

G|------------|-------------------|---------------------|----------------------|
D|------------|-------------------|---------------------|----------------------|
A|-12~~~~~~~~~|~~~~~~~~~~~~~~--10-|-9h10p9h10p9h10p9h10p|=9h10p9h10p9h10p9h10--|
D|------------|-------------------|---------------------|----------------------|
    H            (Q.)     (S)   S   S  S S  S S  S S  S   S  S S  S S  S S  S

G|---------------|----------------|-------------|----------------|
D|---------------|----------------|-------------|----------------|
A|---------------|------------0---|-------------|----------------|
D|-0----0--------|-0~~~~~~~-3---3-|-8----8------|-8~~~~~~~-7-8-7-|
   E.   E   E.     Q    (S) S S S   E.   E  E.    Q    (S) S S S

                            |Rit.
G|---------------|----------|---------|---------|
D|---------------|----------|---------|---------|
A|---------------|----------|---------|---------|
D|-6----6--------|-6--------|-1---1---|-1---1---|
   E.   E   E.     H          Q   Q     Q   Q

                     SS|250 BPM, 4/4
G|----------|----------|------------------|------------------|
D|----------|----------|*-----------------|------------------|
A|----------|----------|*-----------------|------------------|
D|-1~~~~~~~~|~~~~------|--6-7-0-6-7-0---0-|-0---0-0-0---0-0--|
   H          (H)         E E E E E E E E   E E E E E E E E

                                       |1
G|-------------------|-----------------|-----------------|----------------------|
D|-------------------|-----------------|-----------------|----------------------|
A|-------------------|-----4---0-------|-----------------|----------------------|
D|-6-7-0-6-7-0-3-4-6-|-3-0---0---4-3-0-|-6-7-0-6-7-0-7-0-|-4-4-4-4-4-4-0-0-0-0--|
   E E E E E E T T T   E E E E E E E E   E E E E E E E E   T T T T T T E E E E

                                  1|2 To Coda 2
G|----------------|----------------|-----------------|-----------------|
D|----------------|---------------*|-----------------|-----------------|
A|----------------|---------------*|---------------5-|---------5-4-----|
D|-6-7-0-6-7-0-8~~|~~~~--8--3--3---|-6-7-0-6-7-0-0---|---0-3-4-----6-0-|
   E E E E E E Q    (Q)  Q  Q  Q     E E E E E E E E   E E E E E E E E

                               |D.S.S. al Coda 2
G|----------------|------------|
D|----------------|------------|
A|-2-1------------|------2-----|
D|-----0-3~~~~----|-6----------|
   E E E E (H)      H    H

 |Coda 2
G|----------|----------|--------------|----------------|
D|----------|----------|-4--5----2--4~|~~~~-0----------|
A|----------|----------|--------------|----------1-----|
D|----------|----------|--------------|----------------|
   W          W          Q  Q  E Q  E   (E) Q  E Q  Q

                       |125 BPM, 2/4
G|----------|----------|---------|---------|---------|
D|----------|----------|---------|---------|---------|
A|----------|----------|---------|---------|-------5-|
D|----------|----------|-0-----0-|-5h6-5h6-|-0-------|
   W          W          E E E E   E E E E   E E E E

G|-----------|---------------|-------7--|-------|---------|---------|
D|---------0-|-7-0-6-0-----5-|-4-0S7----|-------|---------|---------|
A|-----5-6---|---------6-5---|----------|-------|----1----|---------|
D|-5h6-------|---------------|----------|-0--6--|-3----1--|-0-----0-|
   E E S E S   S S S S S S E   E E S E.   Q  Q    E. S Q    E E E E

G|---------|---------|----------|---------|----------|------|-----|
D|---------|---------|----------|---------|----------|------|-----|
A|---------|---------|-----5-6--|---------|----------|------|-----|
D|-5h6p5h6-|-0-----0-|-5h6------|-0-----0-|-5h6~~~~--|------|-----|
   E E E E   E E E E   E E S E.   E E E E   E E (Q)    H      H

G|------------|-----------------|------------|
D|------------|-----------------|------------|
A|------------|-----------------|------------|
D|-8--8-x-x-8~|~~~~-8-x-x-8-x-x-|-5--5-x-x-5~|
   E. S S S E   (S) S S S E S S   E. S S S E

G|-----------------|------------|-------------|
D|-----------------|------------|-------------|
A|-----------------|------------|-------------|
D|~~~~-5-x-x-5-x-x-|-3--3-x-x-3~|~~~~-3-x-x-3-|
   (S) S S S E S S   E. S S S E   (S) S S S Q

G|---------|-----------|------------------|-----------------|
D|---------|-----------|*-----------------|-----------------|
A|---------|-----------|*-----------------|-----------------|
D|-8--8--8~|~~~~-8--8--|--6-7-0-6-7-0---0-|-0---0-0-0---0-0-|
   E. E. E   (E) E. E.    S S S S S S S S   S S S S S S S S

                                       |1
G|-------------------|-----------------|-----------------|----------------------|
D|-------------------|-----------------|-----------------|----------------------|
A|-------------------|-----4---0-------|-----------------|----------------------|
D|-6-7-0-6-7-0-3-4-6-|-3-0---0---4-3-0-|-6-7-0-6-7-0-7-0-|-4-4-4-4-4-4-0-0-0-0--|
   S S S S S S T T T   S S S S S S S S   S S S S S S S S   T T T T T T S S S S

                             1|2
G|---------------|------------|-----------------|-----------------|
D|---------------|-----------*|-----------------|-----------------|
A|---------------|-----------*|---------------5-|---------5-4-----|
D|-6-7-0-6-7-0-8~|~~~~-8-3-3--|-6-7-0-6-7-0-0---|---0-3-4-----6-0-|
   S S S S S S E   (E) E E E     S S S S S S S S   S S S S S S S S

G|---------------------|------------------|------|--------|------|--------|
D|---------------------|------------------|------|--------|------|--------|
A|---------------------|---------------6--|-5~~~~|~~~~----|------|--------|
D|-12-11-0-9~~~~-0-0-8~|~~~~-0-7~~~~-0----|------|--------|-6~~~~|~~~~----|
    S  S S S (S) S S S   (S) S S (S) S E.   H      (H)      H      (H)

G|------|--------|------|--------|------|--------|------|
D|------|--------|------|--------|------|--------|------|
A|------|--------|------|--------|-5~~~~|~~~~----|-3~~~~|
D|-8~~~~|~~~~----|-1~~~~|~~~~----|------|--------|------|
   H      (H)      H      (H)      H      (H)      H

G|--------|------|--------|------|-------|
D|--------|------|--------|------|-------|
A|~~~~----|------|--------|------|-------|
D|--------|-3~~~~|~~~~----|-1~~~~|~~~~---|
   (H)      H      (H)      H      (H)

G|------------------|-----------------|-----------------|--------------|
D|*-----------------|-----------------|-----------------|--------------|
A|*-5-5-5-5-5-5-5-5-|-5-5-5-5-5-5-5-5-|-5-5-5-5-5-5-5-5-|-5-5-5-5-0--3-|
D|------------------|-----------------|-----------------|--------------|
    S S S S S S S S   S S S S S S S S   S S S S S S S S   S S S S E  E

G|-----------------|---------------|-----------------|----------------|
D|-----------------|---------------|-----------------|---------------*|
A|-5-5-5-5-5-5-5-5-|-5-5-5-5-3--0--|-----------------|---------0--3--*|
D|-----------------|---------------|-3-3-3-3-3-3-3-3-|-5-5-5-5--------|
   S S S S S S S S   S S S S E  E    S S S S S S S S   S S S S E  E

G|-----------------|-----------------|---------------------|----------------|
D|-----------------|-----------------|---------------------|----------------|
A|-----------------|-----------------|---------5-5-5-5-5-5-|----------------|
D|-8-8-8-8---8-8-8-|-8-----8-8-8-8---|---8-8-8-------------|-8-8-8---8-8-8--|
   S S S S S S S S   S S S S S S S S   S S S S T T T T T T   E S S S S S S

G|-----------------|-----------------|-----------------|-------------------|
D|-----------------|-----------------|-----------------|-------------------|
A|-8-6-------------|-----------------|-8-6-----6-5---6~|~~~~-------8-6-----|
D|-----8-6-0-0---0-|-0---0-0-0---0-0-|-----8-6-----8---|-----8-8-8-----8-6-|
   S S S S S S S S   S S S S S S S S   S S S S S S S S   (S) S S S S S S S

G|-----------------|-----------------|-----------------|-----------------|
D|-----------------|-----------------|-----------------|-----------------|
A|-----------------|-----------------|-----------------|-----------------|
D|-8-8-8-8---8-8-8-|-8-----8-8-8-8-0-|-1-1-1-1-1-1-1-1-|-1-1-1-1-1-1-1-1-|
   S S S S S S S S   S S S S S S S S   S S S S S S S S   S S S S S S S S

G|------|--------|-----------|--------------|-----------|--------|
D|------|--------|-----------|--------------|-----------|--------|
A|------|--------|-----------|--------------|-----5-----|--------|
D|-0~~~~|~~~~----|-0---0---0~|~~~~-0~~~~~~--|-0-------0~|~~~~~~~~|
   H      (H)      E.  E.  E   (S) E.  (Q)    E.  E.  E   (H)

                            |185 BPM, 4/4
G|--------|--------|--------|-----------------|
D|--------|--------|--------||_______4_______||
A|--------|--------|--------||               ||
D|~~~~~~~~|~~~~~~~~|~~~~----|-----------------|
   (H)      (H)      (H)     (rest 4 bars)

G|-----------------|----------------|--------------------------|
D|-----------------|----------------|*-------------------------|
A|-5-5---------3-3-|----------------|*-------------------------|
D|-----0-7-7-0-----|-0-1-1---0------|--6-0-3-5-0-3-6-0-3-5-0-3-|
   E E E E E E E E   E E E E E Q.      T T T T T T T T T T T T

                          x2|                       |250 BPM
G|--------------------------|-----------------------|------------------|
D|-------------------------*|-----------------------|------------------|
A|-------------------------*|-----------------------|------------------|
D|-6-0-3-5-0-3-6-0-3-5-0-3--|-6-0-3-5-0-3-6-------0-|-4-4-4-4-4-4-0~~~~|
   T T T T T T T T T T T T    T T T T T T E E E.  S   T T T T T T H

G|------------|------------|------------|--------||
D|------------|------------|------------|--------||
A|------------|------------|------------|--------||
D|~~~~~~~~~~~~|~~~~~~~~~~~~|~~~~~~~~~~~~|~~~~----||
   (W)          (W)          (W)          (W)

            
            
Suggest correction
Creating personal tab
Creating personal tab
You can edit any tab online and save it as your Personal.

You can edit, replace or remove any tab part or add personal notes – all changes will be seen only by you.

Personal tabs can be accessed anytime from any device, even offline.
Learn more »
Give kudos to tab author, rate the tab!
1 2 3 4 5
comments
print report bad tab
guest
You may want to rate the tab now too:
select rating
Wanna post a correction for this tab? Suggest correction