Oops, an error
Loading. Please wait.

Impulse bass

version 1
version 1

Whole song

Interactive

15,698 views 3 this week
2 commentsread comments
1 2 3 4 5
x 10
add to favorites
×
Save as Personal and add changes to this tab that will be seen only by you. Learn more ›
×
You can save this tab as Personal to edit and correct it or add notes. All changes will be seen only by you. Learn more »
launch autoscroll
font size
0
reset
guitar tuner
backing track
0:00
0:00
edit
Autoscroll
slow
fast
+/-
esc
set tempo
stop
Author
An Endless Sporadic: Impulse
From the EP Ameliorate
Bass Tab by Neutralist (adapted from my Guitar Pro tab for non-GP users)

Visit myspace.com/anendlesssporadic and listen to their tunes!
Support them and buy their music of awesomely awesomeness on iTunes!
DO IT OR ELSE

Tempo = 100bpm

Intro (0:00)
G|---||-------|-------|-------|-------|-------|-------|-------|-------|
D|-4:||-------|-------|-------|-------|-------|-------|-------|-------|
A|-4:||-------|-------|-------|-------|-------|-------|-------|-------|
D|---||-------|-------|-------|-------|-------|-------|-------|-------|



Heaviest Riff Ever (0:19)
       E  S S S S S E  S S S S S S S    S S S S S S S E  E  E  E  S  
|---|--------------------------------|--------4-2-------------------|
|-4:|---------------2--------------2-|--4-2-4-----2-4---------------|
|-4:|---------2-3-4----4-3-2-0-2-3---|----------------3--3----------|
|---|--4--2-4------------------------|----------------------1--1--4-|


   E  S S S S S E  S S S S S S S    S S S S T  T  S S S E.  Q    S  
|--------------------------------|--------4-3h-4p-3----------------|
|---------------2--------------2-|--4-2-4-----------4-3------------|
|---------2-3-4----4-3-2-0-2-3---|---------------------------------|
|--L--2-4------------------------|----------------------2---5----4-|


   E  S S S S S E  S S S S S S S    S S S S S S S E  E  E  E  S  
|--------------------------------|--------4-2-------------------|
|---------------2--------------2-|--4-2-4-----2-4---------------|
|---------2-3-4----4-3-2-0-2-3---|----------------3--3----------|
|--L--2-4------------------------|----------------------1--1--4-|


   E  S S S S S E  S S S S S S S    S S S S T  T  S S S E.  Q    S  
|--------------------------------|--------4-3h-4p-3----------------|
|---------------2--------------2-|--4-2-4-----------4-3------------|
|---------2-3-4----4-3-2-0-2-3---|---------------------------------|
|--L--2-4------------------------|----------------------2---5------|



Sweetest Chords Ever (0:38)
   S S E  E  E  E  E  S E  S    S E  E  E  E  E  E  E  S  
|----------------------------|---------------------------|
|----------------------------|---------------------------|
|----------------------------|-------------0--0--0--0----|
|--0-0-0--0--0--0--0--0-0--4-|--L-4--4--4--------------0-|


   S S E  E  E  E  E  S E  S    S E  E  E  E  E  E  E  S  
|----------------------------|---------------------------|
|----------------------------|---------------------------|
|----------------------------|-------------------0--0----|
|----0-0--0--0--0--0--0-0--4-|--L-4--4--4--2--2--------0-|


   S S E  E  E  E  E  S E  S    S E  E  E  E  E  E  E  S  
|----------------------------|---------------------------|
|----------------------------|---------------------------|
|----------------------------|-------------0--0--0--0----|
|--0-0-0--0--0--0--0--0-0--4-|--L-4--4--4--------------0-|


   S S E  E  E  E  E  S E  S    S E  E  E  T  T  S S S S S S S S  
|----------------------------|-----------------------------------|
|----------------------------|-----------------------------------|
|----------------------------|-----------------------2-5-4-0-7-9-|
|--0-0-0--0--0--0--0--0-0--4-|--L-4--4--4--5p-4p-2-5-------------|


        |-3-| |-3-| |-3-| |-3-|                                            
        S S S S S S S S S S S S    H           H          
|---|---------------6---7---9---|-----------|-----------|
|-2:|-------7---9-----7---7---7-|-----------|-----------|
|-4:|--10-7---7---7-------------|-----------|-----------|
|---|---------------------------|--1--------|-----------|



Thickest Chugging Ever (1:01)
       S S S S E  S S    S S S E  S S S    E  S E  E  S    S S S E  S S S  
|---|-----------------|-----------------|---------------|-----------------|
|-2:|-----------------|-----------------|---------------|-----------------|
|-4:|--2-2-2-2-2--2-2-|----2-2-2--2-2-2-|--2--2-2--2--2-|----2-2-2--2-2-2-|
|---|-----------------|-----------------|---------------|-----------------|


   S S S E  S S S    S E  E  E  S    S S S S E  S S    S S S E.  E   
|-----------------|---------------|-----------------|---------------|
|------3-4--------|--3-4----------|--------3-4------|----3-4--------|
|--2-2------2-2-2-|-------2--2--2-|----2-2------2-2-|--2------------|
|-----------------|---------------|-----------------|--------7---3--|


   S S S S E  S S    S S S E  S S S    E  S E  E  S    S S S E  S S S  
|-----------------|-----------------|---------------|-----------------|
|-----------------|-----------------|---------------|-----------------|
|--2-2-2-2-2--2-2-|----2-2-2--2-2-2-|--2--2-2--2--2-|----2-2-2--2-2-2-|
|-----------------|-----------------|---------------|-----------------|


   S S S S E  S S    S S S E  S S S    E  S E  E  S    S S S E  S S S  
|-----------------|-----------------|---------------|-----------------|
|-----------------|-----------------|---------------|-----------------|
|--2-2-2-2-2--2-2-|----2-2-2--2-2-2-|--2--2-2--2--2-|----2-2-2--2-2-2-|
|-----------------|-----------------|---------------|-----------------|



Proggiest Non-Prog Solo Ever (1:20)
       S S S S E  S E  S S E  S S S    E  S E  E  E  S S E  S S S  
|---|-------------------------------|-----------------------------|
|-4:|-------------------------------|-----------------------------|
|-4:|-------------------------------|-----------------------------|
|---|--0-0-0-0-0--0-0--0-0-0--0-0-0-|--0--0-0--0--0--0-0-0--0-0-0-|


   S S S S E  S E  S S E  S S S    E  S E  E  E  S S E  S S S  
|-------------------------------|-----------------------------|
|-------------------------------|-----------------------2-----|
|--0-0-0-0-0--0-0--0-0-0--0-0-0-|-------------------------2---|
|-------------------------------|--2--2-2--2--2--2-2-2------2-|


   S S S S E  S E  S S E  S S S    E  S E  E  E  S S E  S S S  
|-------------------------------|-----------------------------|
|-------------------------------|-----------------------------|
|-------------------------------|-----------------------------|
|--0-0-0-0-0--0-0--0-0-0--0-0-0-|--0--0-0--0--0--0-0-0--0-0-0-|


   S S S S E  S E  S S E  S S S    E  S E  E  E  S S E  S S S  
|-------------------------------|-----------------------------|
|-------------------------------|-----------------------2-----|
|--0-0-0-0-0--0-0--0-0-0--0-0-0-|-------------------------2---|
|-------------------------------|--2--2-2--2--2--2-2-2------2-|


             ^                                                
   |----3----|                                                
   Q    Q    Q    H           Q    E.   E   S  S  S S  S  E   
|--------------------------|------------------11----9--------|
|--------------------------|---------------------------------|
|------------0-------------|---------------12----12---11-----|
|--4----2------------------|-----------12----------------11--|


                                   |--3--|                
   E.  E.  H        E     Q.     S S  S  S S S S S S S S  
|----------------------|---------------------------------|
|----------------------|---------------------4-7-6-------|
|----------2-----------|-----------7p-5p-4-5-------2-----|
|--4---2---------------|-----------------------------2---|



Most Soulful Slide Ever (1:49)
        E   S  E    E    E   E   E   E   S     E   S  E   E   E   E   E   E   S  
|---|---------15------------13----------13-|---------14------16--------------16-|
|-4:|-------------(16)--14----------14-----|------16-----16------17------17-----|
|-4:|------16------------------------------|--17-------------17------17---------|
|---|--16---------------14------14---------|------------------------------------|
       lr               lr      lr            lr             lr      lr         

    E   S  E   E   E   E   E   E   S     E   S  E   E   E.   S  S  S   S  S   S  
|--19-----18------16--------------16-|---------18-----------16----18p-16-14h-16-|
|------17-----17------17------17-----|------16-----16----------17---------------|
|--21-----21------19------19---------|--17--------------------------------------|
|------------------------------------|-----------------17-----------------------|
   lr     lr      lr      lr            lr             lr

    E   S  E    E    E   E   E   E   S     E   S  E   E   E   E   E   E   S  
|---------15------------13----------13-|---------14------16--------------16-|
|-------------(16)--14----------14-----|------16-----16------17------17-----|
|------16------------------------------|--17-------------17------17---------|
|--16---------------14------14---------|------------------------------------|
   lr               lr      lr            lr             lr      lr         

    E   S  E    E    E   E   E   E.      E   S  Q    S  H         
|---------15--------12---------------|---------11------13--------|
|-------------(16)------14------14---|------12---------14--------|
|------16----------------------------|---------------------------|
|--16---------------14------14-------|--12-----------L-14--------|
   lr               lr      lr          lr



Funkiest Riff In History (2:08)
       S E  S S S S E  E  S S S S S    S E  S S S S E  E  S S S S S  
|---|-------------------------------|-------------------------------|
|-4:|---------4---3-2--2--2-4-2-----|-------------------------------|
|-4:|---------------------------4-2-|--0-0--0-2-4-0-2--2--0-2-4-0---|
|---|--4-4--4---4-------------------|-------------------------------|


   S E  S S S S E  E  S S S S S    S E  S S S S E  E  S   S  S  E    
|-------------------------------|---------------------------14------|
|---------4---3-2--2--2-4-2-----|-----------------------/13----13\--|
|---------------------------4-2-|--0-0--0-2-4-0-2--2--2-------------|
|--4-4--4---4-------------------|-----------------------------------|


   S E  S S S S E  E  S S S S S    S E  S S S S E  E  S S S S S  
|-------------------------------|-------------------------------|
|---------4---3-2--2--2-4-2-----|-------------------------------|
|---------------------------4-2-|--0-0--0-2-4-0-2--2--0-2-4-0---|
|--4-4--4---4-------------------|-------------------------------|


   S E  S S S S E  E  S S S S S        W                H         
|-------------------------------|---|----------------------------|
|---------4---3-2--2--2-4-2-----|-6:|----------------------------|
|---------------------------x---|-4:|----------------------------|
|--4-4--4---4-----------------3-|---|--L-------------------------|



Most Psychotic Breakdown Ever (2:28)
       W                Q       H        E  E  E  E  E  E   
|---|------------------------|-----------------------------|
|-5:|------------------------|-----------------------------|
|-4:|------------------------|-----------------------------|
|---|------------------------|-----------4--4--4--4--4--4--|


   E  Q.     E  Q    E  Q       E  Q    E  E  S  S S  S S  S E  E   
|----------------------------|-------------------------------------|
|----------------------------|--------------------------4h-5-------|
|----------------------------|---------------------5h-6------------|
|--4---------4-------4-------|--4-------4--4--4h-5-----------4--4--|


   E  E  Q    E  Q    E  Q       E  Q    E  E  E  E  E  E  E   
|-----------------------------|-------------------------------|
|-----------------------------|-------------------------------|
|-----------------------------|-------------------------------|
|--4--4-------4-------4-------|--4-------4--4--4--4--1--3--0--|


   S S S S S S S S E  E  E  S S E  S S        S S S E  E  E  S S S S S S S  
|--------------------------------------|---|---------------------------4-4-|
|----3-1-----0-------------------------|-4:|-------------------3-1---------|
|--3-----3-0---3----------------2----2-|-4:|-----------------3-----3-0-----|
|----------------6-1--3--0--3-3----3---|---|----3-3-1--3--0----------------|


   S S S S S S S S S S S S S S S S    S S S S S S S S S S S S S S S S  
|------4---4-4---4-4---4-4-4-----4-|----1---1-------1---2---1-------1-|
|--3-3---3-----3-----3-------3-3---|--3---3---3---3---3---3---3---3---|
|----------------------------------|------------0---------------0-----|
|----------------------------------|----------------------------------|


       S S S S S S S S S S S S        S S S S S S S S S S S S E  S S  
|---|------2---1-4-1-----------|---|---------------------------------|
|-3:|----3---3---------4-1-4---|-4:|---------------------------------|
|-4:|--0-------------0-------0-|-4:|--5-5-5-2-2-2--------------------|
|---|--------------------------|---|--------------6-6-6-3-3-3----3-3-|



Fattest Double Kicks Ever (2:53)
       S S S E  S S S E  S S S S S S S S    S S S E  S S S E  S S S S S S S S  
|---|------------------------------------|------------------------------------|
|-9:|----------------------6-5-----------|----------------------6-5-----------|
|-8:|--------8--------8--------9-7-8-7-6-|--------8--------8--------9-7-8-7-6-|
|---|--7-8-9----7-8-9----7---------------|--7-8-9----7-8-9----7---------------|


   S S S E  S S S E  S S S S S S S S    S S S E  S S S E  S S S S S S S S  
|------------------------------------|------------------------------------|
|----------------------6-5-----------|----------------------6-5-----------|
|--------8--------8--------9-7-8-7-6-|--------8--------8--------9-7-8-7-6-|
|--7-8-9----7-8-9----7---------------|--7-8-9----7-8-9----7---------------|



Cheesiest Interlude Ever (3:02)
       E  S H        Q    E  S    W                E   
|---|--------------------------|----------------------|
|-9:|--------------------------|----------------------|
|-8:|--0----0----------------0-|--0----------------L--|
|---|--------------------------|----------------------|



Post-CI Rippingest Solo Ever (3:07)
       S E  Q    S S E  S E     S E  Q.     E.  S S    S E  Q    S S E  S E   
|---|------------------------|----------------------|------------------------|
|-7:|------------------------|----------------------|------------------------|
|-8:|------------------------|----------------------|------------------------|
|---|--4-4-------4-4-4----4--|----4---------4---4-4-|--3-3-------3-3-3----3--|


          S E  Q.   S S S S E  S S        S E  Q    S S E  S E     S E  Q.     E.  S S  
|----|-----------------------------|---|------------------------|----------------------|
|-17:|-----------------------------|-7:|------------------------|----------------------|
|-16:|-----------------------------|-8:|------------------------|----------------------|
|----|----3---------3-3-3-3----3-3-|---|--4-4-------4-4-4----4--|----4---------4---4-4-|


   S E  Q    S S E  S E          S E  Q.     S S S S E  S S  
|------------------------|----|-----------------------------|
|------------------------|-17:|-----------------------------|
|------------------------|-16:|-----------------------------|
|--3-3-------3-3-3----3--|----|----3---------3-3-3-3----3-3-|



Indescribably Beautiful Solo (3:25)
       E  S E  S S E  S S S E.  S     E  E  S S E  S S S E.  S S  
|---|------------------------------|-----------------------------|
|-4:|----------7-8-9---------------|--------7-8-9----------------|
|-4:|-----------------x-7-8-9------|---------------x-7-8-9---x-x-|
|---|--9--9---------------------12-|--9--9-----------------------|


   E  S E  S S E.  E.  S E     E  S S E  S E  E  E.  E   
|------------9-6------------|-----9---7-----------------|
|----------0-------0---x-0--|------------4-5--6---------|
|--5--5---------------------|--7----7-------------------|
|---------------------------|--------------------7---8--|
          lr                  lr

   E  S E  S S E  S S S E.   S    E  E  S S E  S S S E.  S S  
|------------------------------|-----------------------------|
|----------7-8-9---------------|--------7-8-9----------------|
|-----------------x-7-8-9------|---------------x-7-8-9---x-x-|
|--9--9---------------------12-|--9--9-----------------------|


   E  S E  S S E.  E.  S E     E  S S E  S E  E  E.  E   
|------------9-6------------|-----9---7-----------------|
|----------0-------0---x-0--|------------4-5--6---------|
|--5--5---------------------|--7----7-------------------|
|---------------------------|--------------------7---8--|
          lr                  lr


Heaviest Riff Ever Redux (3:45)
       E  S S S S S E  S S S S S S S    S S S S S S S E  E  E  E  S  
|---|--------------------------------|--------4-2-------------------|
|-4:|---------------2--------------2-|--4-2-4-----2-4---------------|
|-4:|---------2-3-4----4-3-2-0-2-3---|----------------3--3----------|
|---|--4--2-4------------------------|----------------------2--2--4-|


   E  S S S S S E  S S S S S S S    S S S S T  T  S S S E.  Q    S  
|--------------------------------|--------4-3h-4p-3----------------|
|---------------2--------------2-|--4-2-4-----------4-3------------|
|---------2-3-4----4-3-2-0-2-3---|---------------------------------|
|--L--2-4------------------------|----------------------2---5----4-|


   E  S S S S S E  S S S S S S S    S S S S S S S E  E  E  E  S    E  S S S S S E  S S S S S S S 
|--------------------------------|--------4-2-------------------|--------------------------------|
|---------------2--------------2-|--4-2-4-----2-4---------------|---------------2--------------2-|
|---------2-3-4----4-3-2-0-2-3---|----------------3--3----------|---------2-3-4----4-3-2-0-2-3---|
|--L--2-4------------------------|----------------------2--2--4-|--L--2-4------------------------|


                          Scariest Outro Ever (4:02)
   S S S S T  T  S S S E  S E  E  S    E  S E  E  S H           W
|--------4-3h-4p-3------------------|------------------------|-------------------||
|--4-2-4-----------4-3--------------|------------------------|-------------------||
|-----------------------------------|------------------------|-------------------||
|-------------------------2-2--2----|--2----2-----2----------|-------------------||



Duration Legend
---------------
W - whole
H - half
Q - quarter
E - 8th
S - 16th
T - 32nd
X - 64th
. - note dotted
|-n-|  - n-tuplets


Tablature Legend
----------------
L - tied note
x - dead note
(n) - ghost note
> - accentuated note
^ - heavy accentuated note
h - hammer on
p - pull off
/ -  slide upwards
\ -  slide downwards
lr - let ring

|---|
|-#:| - Time
|-#:| - Signature
|---|

            
            
Suggest correction
Creating personal tab
Creating personal tab
You can edit any tab online and save it as your Personal.

You can edit, replace or remove any tab part or add personal notes – all changes will be seen only by you.

Personal tabs can be accessed anytime from any device, even offline.
Learn more »
comments
print report bad tab
2 comments total.
0 reply
Fat Kid 121 Dec 31, 2009 01:15 PM

Very good tab!

0 reply
BCarey2293 131 Jan 30, 2010 10:21 AM

17/16? wtf...

guest
You may want to rate the tab now too:
select rating
Wanna post a correction for this tab? Suggest correction