Oops, an error
Loading. Please wait.

Camp Out tab

version 1
version 1

Whole song

12,651 views 1 this week
6 commentsread comments
1 2 3 4 5
x 15
add to favorites
×
Save as Personal and add changes to this tab that will be seen only by you. Learn more ›
×
You can save this tab as Personal to edit and correct it or add notes. All changes will be seen only by you. Learn more »
launch autoscroll
font size
0
reset
how to read this tab
guitar tuner
edit
Autoscroll
slow
fast
+/-
esc
set tempo
stop
There are a couple of tabs on here for this song but
i listened to an acoustic version 2000000 times over
and from what I can hear Kate plays it like this.

Capo on 2nd fret.

Listen to the song to work out strumming pattern.
In the non acoustic versions there are guitar effects
 so you might just want to make up your own.

Softly mute the E string with your middle finger. I’m
not sure if this is what she does but it sounds better
that way. Use your 4th finger (pinkie) on the D string
and your 1st finger (index) on the A string. Also rest
your index finger on the higher strings to mute them
when strumming

This is the basic riff played in the verses.

Riff 1
e-----------------------------------------|
B-----------------------------------------|
G-----------------------------------------|
D---5---/---9---/---7---/---14------------|
A---3---/---7---/---5---/---12------------|
E-----------------------------------------|


This is a song for the one that I love
I haven’t met them yet
But I’m quietly confident

Although what if like you said
All I’m looking for
It doesn’t exist
Oh I have to believe it does


Riff 2
e-----------------------------------------|
B-----------------------------------------|
G-----------------------------------------|
D----------------2--------5-----2---------|
A-----2----------2--------3-----2---------|
E-----3-----------------------------------|

Cause it’s okay to fall down
It’s okay to crumble
I’ve seen this before
I have seen this before

Riff 1
e----------------------------------------|
B----------------------------------------|
G----------------------------------------|
D---5---/---9---/---7---/---14-----------|
A---3---/---7---/---5---/---12-----------|
E----------------------------------------|

And you said you wanted
to crawl down deep inside
But at this point of the last year
I am happy to be alive and

Like that good Hole album
I could live through this
I can live through worse
So play it back in reverse
Oh play it back in reverse

Riff 2
e----------------------------------------|
B----------------------------------------|
G----------------------------------------|
D----------------2--------5-----2--------|
A-----2----------2--------3-----2--------|
E-----3----------------------------------|


Cause it’s okay to fall down
It’s okay to crumble
I’ve seen this before
I have seen this before and


You wanna camp out and I wanna screw around
In the dark
In the dark

Riff 1
e----------------------------------------|
B----------------------------------------|
G----------------------------------------|
D---5---/---9---/---7---/---14-----------|
A---3---/---7---/---5---/---12-----------|
E----------------------------------------|


But my hips won’t give anything away
Not tonight not to you
but I think we both know you will stay

And I am surprised how this fits together
I’m surprised how we fit together
And that I will remember
Oh and that I will remember

Riff 2

e---------------------------------------|
B---------------------------------------|
G---------------------------------------|
D----------------2--------5-----2-------|
A-----2----------2--------3-----2-------|
E-----3---------------------------------|

Cause It’s okay to fall down
It’s okay to crumble
I’ve seen this before
I have seen this before
And you wanna camp out and I wanna fuck around
In the dark
In the dark


Riff 3

e---------------------------------------|
B---------------------------------------|
G---------------------------------------|
D----------------5--------2-----5-------|
A-----2----------3--------2-----3-------|
E-----3---------------------------------|


But you need to know I’d do this all again
Just to get where I am
Just to get where I am
And I let you know I’d do it all again
Just to get where I am
Just to get where I am

Riff 1 again to finish

e----------------------------------------|
B----------------------------------------|
G----------------------------------------|
D---5---/---9---/---7---/---14-----------|
A---3---/---7---/---5---/---12-----------|
E----------------------------------------|


Let me know what you think. Comment here or email me at toricm@gmail.com

            
            
Suggest correction
Creating personal tab
Creating personal tab
You can edit any tab online and save it as your Personal.

You can edit, replace or remove any tab part or add personal notes – all changes will be seen only by you.

Personal tabs can be accessed anytime from any device, even offline.
Learn more »
comments
print report bad tab
6 comments total. Showing first comments.
+1 reply
thesis 72 Mar 24, 2009 04:19 PM

My mistake. Riff 1 is

e-----------------------------------------|
B-----------------------------------------|
G-----------------------------------------|
D---5---/---9---/---7---/---12------------|
A---3---/---7---/---5---/---10------------|
E-----------------------------------------|

It's all relative to the capo

0 reply
mrg54 10 Apr 14, 2009 12:23 AM

This is exactly right. Good job.

0 reply
thesis 72 Apr 14, 2009 04:01 AM

Cheers. Thankyou very much for the comment!

guest
You may want to rate the tab now too:
select rating
Wanna post a correction for this tab? Suggest correction