Oops, an error
Loading. Please wait.

Meow bass

version 1
version 1

Whole song

Interactive

2,089 views 3 this week
1 commentread comment
1 2 3 4 5
1 last vote to show rating
add to favorites
×
Save as Personal and add changes to this tab that will be seen only by you. Learn more ›
×
You can save this tab as Personal to edit and correct it or add notes. All changes will be seen only by you. Learn more »
launch autoscroll
font size
0
reset
guitar tuner
edit
Autoscroll
slow
fast
+/-
esc
set tempo
stop
Author
Difficulty
Very fast/catchy song, try to keep up.

CHORUS

G--------------------------------------------------------------|
D--------------------------------------------------------------|
A----------------------------------0-0-0-0-1--1-1-1-1-0--------|
E-1-1-1-1-1-1-1-1-1-1-1-1-1-0-1-3-----------------------3-1----|

VERSE (MEOW PART)

G--------------------------------------------------------------|
D--------------------------------------------------------------|
A----------------------------------0-0-0-0-1--1-1-1-1-0--------|
E-1-1-1-1-1-1-1-1-1-1-1-1-1-0-1-3-----------------------3-1----|

PRE-CHORUS

G---------------------------------------------------------------|
D---------------------------------------------------------------|
A---------0-0-0-0-1-1-1-1-1-0-1-3-------------------------------|
E-1-1-1-1-------------------------------------------------------|

BRIDGE (DREAMY PART)

G---------------------------------------------------------------|
D---------------------------------------------------------------|
A---------0-0-0-0-1-1-1-1-1-0-1-3-------------------------------|
E-1-1-1-1-------------------------------------------------------|

FINALE (THE PART AFTER THE BRIDGE)

G---------------------------------------------------------------|
D---------------------------------------------------------------|
A---------0-0-0-0-1-1-1-1-1-0-1-3-------------------------------|
E-1-1-1-1-------------------------------------------------------|

            
            
Suggest correction
Creating personal tab
Creating personal tab
You can edit any tab online and save it as your Personal.

You can edit, replace or remove any tab part or add personal notes – all changes will be seen only by you.

Personal tabs can be accessed anytime from any device, even offline.
Learn more »
Give kudos to tab author, rate the tab!
1 2 3 4 5
comments
print report bad tab
1 comment total.
0 reply
srevans92 10 Feb 27, 2014 10:40 PM

I believe there is more to this tab than just those riffs. Like, after the build up, at around the 2:43 mark, there should be these notes:
G----------------------------------------------------------------|
D----------------------------------------------------------------|
A---------3-3-3-3-5-5-5-5-0-0-0-0-1-1-1-1---------1-1-1-1-3-3-4-4|
E-1-1-1-1---------------------------------1-1-1-1----------------|

G---------------------------------------------------------------|
D---------------------------------------------------------------|
A-5-5-5-5-3-3-3-3-1-1-1-1-1-1-1-1-1-1-1-1-1-1-1-1-3-3-3-3-3~----|
E---------------------------------------------------------------|

And then the outro should be something like this:

G---------------------------------------------------------------| x4
D---------------------------------------------------------------|
A-----------------1--1--1-1--1--1-------------------------------|
E-1--1--1-1--1--1-----------------------------------------------|

guest
You may want to rate the tab now too:
select rating
Wanna post a correction for this tab? Suggest correction