Oops, an error
Loading. Please wait.

Brightest Green tab

version 1
version 1

Whole song

by Anarbor
21,391 views 6 this week
2 commentsread comments
1 2 3 4 5
x 9
add to favorites
×
Save as Personal and add changes to this tab that will be seen only by you. Learn more ›
×
You can save this tab as Personal to edit and correct it or add notes. All changes will be seen only by you. Learn more »
launch autoscroll
font size
0
reset
how to read this tab
guitar tuner
edit
Autoscroll
slow
fast
+/-
esc
set tempo
stop
Author
Difficulty
-------------------------------------------------------------------------------
                            The Brightest Green - Anarbor
-------------------------------------------------------------------------------
Tabbed by: Luke Bennett

Tuning: Standard

I thought this song needed a tab for it so i made this. amazing band and amazing song. 
parts of it might be slightly off like strumming patterns and such. i'm not going to 
claim i'm perfect. rate and comment please!  If anything is (somehow) really wrong 
give me corrections, though, please! Peace out!

Key:
h - hammer-on
p - pull-off
\ or / - slide
x - muted string

Intro:

G1
|-----------|
|-----------|
|-----------|
|-----2-----| x4
|-2h4---4-4-|
|-----------|

no G2



Verse:

 G1
|-------------------------------------------------|
|-------------------------------------------------|
|-------------------------------------------------|
|-----2-----------2-------------------------------|
|-2h4---4-4---2h4---4-4-------2-----------2-------|
|-------------------------2h4---4-4---2h4---4-4-3-|

 G1
|-------------------------------------------------|
|-------------------------------------------------|
|-------------------------------------------------|
|-----------------------------1-----------1-------|
|-----0-----------0-------0h2---2-2---0h2---2-x-3-|
|-0h2---2-2---0h2---2-2---------------------------|
|
|G2
|---------------------------------------------x-3-|
|---------------------------------------------x-4-|
|---------------------------------------------x-5-|
|---------------------------------------------x-5-|
|---------------------------------------------x-3-|
|-------------------------------------------------|

 G1
|-------------------------------------------------|
|-------------------------------------------------|
|-------------------------------------------------|
|-----2-----------2-------------------------------|
|-2h4---4-4---2h4---4-4-------2-----------2-------|
|-------------------------2h4---4-4---2h4---4-4-3-|
|
|G2
|---------4-----------4-----------4-----------4---|
|---------5-----------5-----------4-----------4---|
|---------6-----------6-----------4-----------4---|
|---------6-----------6-----------6-----------6---|
|---------4-----------4-----------6-----------6---|
|---------------------------------4-----------4---|

 G1
|-------------------------------------------------|
|-------------------------------------------------|
|-------------------------4-4-4-4-4-4-5-------5-6\|
|-------------------------4-4-4-4-4-4-5-------5-6\|
|-----0-----------0-------2-2-2-2-2-2-3-------3-4\|
|-0h2---2-2---0h2---2-2---------------------------|
|
|G2
|---------2-----------2---------------------------|
|---------2-----------2---------------------------|
|---------3-----------3---4-4-4-4-4-4-5-------5-6\|
|---------4-----------4---4-4-4-4-4-4-5-------5-6\|
|---------4-----------4---2-2-2-2-2-2-3-------3-4\|
|---------2-----------2---------------------------|



Prechorus(ah-ah-ah-ah):

no guitar



Chorus:

 G1
|----12----12----12----11----12----12----12----11-|\
/14----14----14----12----14----14----14----12-----| \
|-------------------------------------------------|  \
|-------------------------------------------------|  |
|-------------------------------------------------|  |
|-------------------------------------------------|  |
|                                                    |
|G2                                                  |
|-------------------------------------------------|  |
|-------------------------------------------------|  |
|-6-----6-----6-----6---6-------------------------|  |
|-6-----6-----6-----6---6-2-----2-----2-----2---2-|  |
|-4-----4-----4-----4---4-2-----2-----2-----2---2-|  |
|-------------------------0-----0-----0-----0---0-|  |
                                                     |x2
 G1                                                  |
|----11----11----11-----9-----9-----9-----9-----9-|  |
|12----12----12--------10------10----10----10-----|  |
|-------------------------------------------------|  |
|-------------------------------------------------|  |
|-------------------------------------------------|  |
|-------------------------------------------------|  |
|                                                    |
|G2                                                  |        
|-------------------------------------------------|  |
|-------------------------------------------------|  |
|-4-----4-----4-----------------------------------|  |
|-4-----4-----4-----x---4-----x-4---4-4---4-4---4-|  /
|-2-----2-----2-----x---4-----x-4---4-4---4-4---4-| /
|-------------------x---2-----x-2---2-2---2-2---2-|/ 

 G1
|-------------------------------------------------|
|-9----10----12-----9-----------5-----5-----5-----| 
|-------------------------------------------------|  
|-------------------------------------------------|  
|-------------------------------------------------|  
|-------------------------------------------------|  
|                                                    
|G2                                                  
|-------------------------------------------------|  
|-------------------------------------------------|  
|-2-----2-----x-----------------------------------|  
|-2-----2-----x-----2-----------2-----2-----2---2-|  
|-0-----0-----x-----2-----------2-----2-----2---2-|  
|-------------------0-----------0-----0-----0---0-|

 G1
|-------------------------------------------------|
|-4-----5-----4-----2-----------2-----2-----2-----| 
|-------------------------------------------------|  
|-------------------------------------------------|  
|-------------------------------------------------|  
|-------------------------------------------------|  
|                                                    
|G2                                                  
|-------------------------------------------------|  
|-------------------------------------------------|  
|-4-----4-----x-----------------------------------|  
|-4-----4-----x-----4-----------4-----4-----4---4-|  
|-2-----2-----x-----4-----------4-----4-----4---4-|  
|-------------------2-----------2-----2-----2---2-|

 G1
|----12----12----12----11----12----1212----12-----| 
/14----14----14----12----14----14----13----13-----|  
|-------------------------------------------------|   
|-------------------------------------------------|   
|-------------------------------------------------|    
|-------------------------------------------------|  
|                                                    
|G2                                                  
|-------------------------------------------------|  
|-------------------------------------------------|  
|-2-----2-----2-----2---2-4-----4-----5-----5-----|  
|-2-----2-----2-----2---2-4-----4-----5-----5-----|  
|-0-----0-----0-----0---0-2-----2-----3-----3-----|  
|-------------------------------------------------|



Postchorus:

 G1
|12\----------------------------------------------| 
|14\----------------------------------------------|  
|-------------------------------------------------|   
|-------------------------------------------------|   
|-------------------------------------------------|              
|-------------------------------------------------|                    
|                                                     
|G2                                                   
|-------------------------------------------------|   
|-------------------------------------------------|   
|-------------------------------------------------|   
|-------------------------------------------------|the last 2 should
|-4-----4-----4-----4-----4-----4-----4--p2----2--|line up w/ g1's 2 at
|-------------------------------------------4-----|the beg of the verse

Live they play this instead for the postchorus:

G1
|12\----------------------------------------------| 
|14\----------------------------------------------|  
|-------------------------------------------------|   
|-------------------------------------------------|   
|-------------------------------------------------|              
|-------------------------------------------------|                    
|                                                     
|G2                                                   
|-------------------------------------------------|   
|-------------------------------------------------|   
|-6-----6-----6-----6-----6-----6-----6-----------|   
|-6-----6-----6-----6-----6-----6-----6-----------|
|-4-----4-----4-----4-----4-----4-----4-----------|
|-------------------------------------------------|



Verse:

 G1
|-------------------------------------------------|
|-------------------------------------------------|
|-------------------------------------------------|
|-----2-----------2-------------------------------|
|-2h4---4-4---2h4---4-4-------2-----------2-------|
|-------------------------2h4---4-4---2h4---4-4-3-|
|
|G2
|---------4-----------4-----------4-----------4---|
|---------5-----------5-----------4-----------4---|
|---------6-----------6-----------4-----------4---|
|---------6-----------6-----------6-----------6---|
|---------4-----------4-----------6-----------6---|
|---------------------------------4-----------4---|

  G1
|-------------------------------------------------|
|-------------------------------------------------|
|-------------------------------------------------|
|-----------------------------1-----------1-------|
|-----0-----------0-------0h2---2-2---0h2---2-x-3-|
|-0h2---2-2---0h2---2-2---------------------------|
|
|G2
|---------2-----------2-----------2-----------x-3-|
|---------2-----------2-----------4-----------x-4-|
|---------3-----------3-----------4-----------x-5-|
|---------4-----------4-----------4-----------x-5-|
|---------4-----------4-----------2-----------x-3-|
|---------2-----------2---------------------------|

G1
|-------------------------------------------------|
|-------------------------------------------------|
|-------------------------------------------------|
|-----2-----------2-------------------------------|
|-2h4---4-4---2h4---4-4-------2-----------2-------|
|-------------------------2h4---4-4---2h4---4-4-3-|
|
|G2
|---------4-----------4-----------4-----------4---|
|---------5-----------5-----------4-----------4---|
|---------6-----------6-----------4-----------4---|
|---------6-----------6-----------6-----------6---|
|---------4-----------4-----------6-----------6---|
|---------------------------------4-----------4---|

 G1
|-------------------------------------------------|
|-------------------------------------------------|
|-------------------------4-4-4-4-4-4-5-------5-6\|
|-------------------------4-4-4-4-4-4-5-------5-6\|
|-----0-----------0-------2-2-2-2-2-2-3-------3-4\|
|-0h2---2-2---0h2---2-2---------------------------|
|
|G2
|---------2-----------2---------------------------|
|---------2-----------2---------------------------|
|---------3-----------3---4-4-4-4-4-4-5-------5-6\|
|---------4-----------4---4-4-4-4-4-4-5-------5-6\|
|---------4-----------4---2-2-2-2-2-2-3-------3-4\|
|---------2-----------2---------------------------|



Repeat Prechorus

Repeat Chorus


Bridge:

 G1
|12\----------------------------------------------| 
|14\----------------------------------------------|  
|-------------------------------------------------|   
|-------------------------------------------------|   
|-------------------------------------------------|              
|-------------------------------------------------|                    
|                                                     
|G2                                                   
|-------------------------------------------------|   
|-------------------------------------------------|   
|-------------------------------------------------|   
|-------------------------------------------------|
|-4--4--4--4--4--4--4p2-2-4--4--4--4--4--4--4p2-2-|
|----------------------4-----------------------4--|

 G1
|-------------------------------------------------|live they hold a 
|------------------------/9-----8-----7--7--7-5---|measure or so of the
|-------------------------------------------------|#2 fret on the b-string
|-------------------------------------------------|here before moving on to
|-------------------------------------------------|the rest of the bridge
|-------------------------------------------------|          
|                                                     
|G2                                                   
|-------------------------------------------------|   
|-------------------------------------------------|   
|-------------------------------------------------|   
|-------------------------------------------------|
|-4--4--4--4--4--4--4p2-2-------------------------|
|----------------------4--4-----3-----2--2--2-0---|

 G1
|-9--9--9--9--9--9--9p7-7-9--9--9--9--9--9--9p7-7-|\ 
|----------------------9-----------------------9--| \ 
|-------------------------------------------------|  \ 
|-------------------------------------------------|  |
|-------------------------------------------------|  |            
|-------------------------------------------------|  |                  
|                                                    | 
|G2                                                  | 
|-------------------------------------------------|  | 
|-------------------------------------------------|  | 
|-------------------------------------------------|  | 
|-------------------------------------------------|  |
|-4--4--4--4--4--4--4p2-2-4--4--4--4--4--4--4p2-2-|  |
|----------------------4-----------------------4--|  |
                                                     |x2
 G1                                                  |
|-9--9--9--9--9--9--9p7-7-------------------------|  |
|----------------------9--9-----8-----7--7--7-5---|  | 
|-------------------------------------------------|  | 
|-------------------------------------------------|  | 
|-------------------------------------------------|  |            
|-------------------------------------------------|  |                  
|                                                    | 
|G2                                                  | 
|-------------------------------------------------|  | 
|-------------------------------------------------|  | 
|-------------------------------------------------|  | 
|-------------------------------------------------|  /
|-4--4--4--4--4--4--4p2-2-------------------------| /
|----------------------4--4-----3-----2--2--2-0---|/

 G1
|----------------------------------------------------| 
/12----11----10-10-10-9--16----15----14-14-1412--14\-|  
|----------------------------------------------------|   
|----------------------------------------------------|   
|----------------------------------------------------|              
|----------------------------------------------------|                    
|                                                     
|G2                                                   
|----------------------------------------------------|   
|----------------------------------------------------|   
|-------------------------------------------------6\-|   
|-------------------------------------------------6\-|
|-------------------------6--6--5--5--4--4--4-2---4\-|
|-7-----6-----5--5--5-4------------------------------|



Final Chorus:

 G1
|-------------------------------------------------|  
|-------------------------------------------------|  
|-------------------------------------------------|   
|-------------------------------------------------|   
|-------------------------------------------------|   
|-------------------------------------------------|   
|                                                     
|G2                                                   
|-------------------------------------------------|   
|-------------------------------------------------|   
|-6-----------------------------------------------|   
|-6-----------------------2-----------------------|   
|-4-----------------------2-----------------------|   
|-------------------------0-----------------------|   
                                                        
 G1                                                   
|-----------------------9-----9-----9-----9-----9-|   
|----------------------10------10----10----10-----|   
|-------------------------------------------------|   
|-------------------------------------------------|   
|-------------------------------------------------|   
|-------------------------------------------------|   
|                                                     
|G2                                                           
|-------------------------------------------------|   
|-------------------------------------------------|   
|-4-----------------------------------------------|   
|-4-----------------x---4-----x-4---4-4---4-4---4-|   
|-2-----------------x---4-----x-4---4-4---4-4---4-|  
|-------------------x---2-----x-2---2-2---2-2---2-| 

 G1
|----12----12----12----11----12----12----12----11-| 
/14----14----14----12----14----14----14----12-----|  
|-------------------------------------------------|   
|-------------------------------------------------|   
|-------------------------------------------------|   
|-------------------------------------------------|   
|                                                     
|G2                                                   
|-------------------------------------------------|   
|-------------------------------------------------|   
|-6-----6-----6-----6---6-------------------------|   
|-6-----6-----6-----6---6-2-----2-----2-----2---2-|   
|-4-----4-----4-----4---4-2-----2-----2-----2---2-|   
|-------------------------0-----0-----0-----0---0-|   
                                                        
 G1                                                   
|----11----11----11-----9-----9-----9-----9-----9-|   
|12----12----12--------10------10----10----10-----|   
|-------------------------------------------------|   
|-------------------------------------------------|   
|-------------------------------------------------|   
|-------------------------------------------------|   
|                                                     
|G2                                                           
|-------------------------------------------------|   
|-------------------------------------------------|   
|-4-----4-----4-----------------------------------|   
|-4-----4-----4-----x---4-----x-4---4-4---4-4---4-|   
|-2-----2-----2-----x---4-----x-4---4-4---4-4---4-|  
|-------------------x---2-----x-2---2-2---2-2---2-|

 G1
|-------------------------------------------------|
|-9----10----12-----9-----------5-----5-----5-----| 
|-------------------------------------------------|  
|-------------------------------------------------|  
|-------------------------------------------------|  
|-------------------------------------------------|  
|                                                    
|G2                                                  
|-------------------------------------------------|  
|-------------------------------------------------|  
|-2-----2-----x-----------------------------------|  
|-2-----2-----x-----2-----------2-----2-----2---2-|  
|-0-----0-----x-----2-----------2-----2-----2---2-|  
|-------------------0-----------0-----0-----0---0-|

 G1
|-------------------------------------------------|
|-4-----5-----4-----2-----------2-----2-----2-----| 
|-------------------------------------------------|  
|-------------------------------------------------|  
|-------------------------------------------------|  
|-------------------------------------------------|  
|                                                    
|G2                                                  
|-------------------------------------------------|  
|-------------------------------------------------|  
|-4-----4-----x-----------------------------------|  
|-4-----4-----x-----4-----------4-----4-----4---4-|  
|-2-----2-----x-----4-----------4-----4-----4---4-|  
|-------------------2-----------2-----2-----2---2-|

 G1
|----12----12----12----11----12----1212----12-----| 
/14----14----14----12----14----14----13----13-----|  
|-------------------------------------------------|   
|-------------------------------------------------|   
|-------------------------------------------------|    
|-------------------------------------------------|  
|                                                    
|G2                                                  
|-------------------------------------------------|  
|-------------------------------------------------|  
|-2-----2-----2-----2---2-4-----4-----5-----5-----|  
|-2-----2-----2-----2---2-4-----4-----5-----5-----|  
|-0-----0-----0-----0---0-2-----2-----3-----3-----|  
|-------------------------------------------------|

 G1
|12\----------------------------------------------| 
|14\----------------------------------------------|  
|-------------------------------------------------|   
|-------------------------------------------------|   
|-------------------------------------------------|              
|-------------------------------------------------|                    
|                                                     
|G2                                                   
|-------------------------------------------------|   
|-------------------------------------------------|   
|-------------------------------------------------|   
|-------------------------------------------------|
|-4-----4-----4-----4-----4-----4-----4--p2----2--|
|-------------------------------------------4-----| 

 G1
|-------------------------------------------------|
|-9----10----12-----9-----------5-----5-----5-----| 
|-------------------------------------------------|  
|-------------------------------------------------|  
|-------------------------------------------------|  
|-------------------------------------------------|  
|                                                    
|G2                                                  
|-------------------------------------------------|  
|-------------------------------------------------|  
|-2-----2-----x-----------------------------------|  
|-2-----2-----x-----2-----------2-----2-----2---2-|  
|-0-----0-----x-----2-----------2-----2-----2---2-|  
|-------------------0-----------0-----0-----0---0-|

 G1
|-------------------------------------------------|
|-4-----5-----4-----2-----------2-----2-----2-----| 
|-------------------------------------------------|  
|-------------------------------------------------|  
|-------------------------------------------------|  
|-------------------------------------------------|  
|                                                    
|G2                                                  
|-------------------------------------------------|  
|-------------------------------------------------|  
|-4-----4-----x-----------------------------------|  
|-4-----4-----x-----4-----------4-----4-----4---4-|  
|-2-----2-----x-----4-----------4-----4-----4---4-|  
|-------------------2-----------2-----2-----2---2-|

 G1
|----12----12----12----11----12----1212----12-----| 
/14----14----14----12----14----14----13----13-----|  
|-------------------------------------------------|   
|-------------------------------------------------|   
|-------------------------------------------------|    
|-------------------------------------------------|  
|                                                    
|G2                                                  
|-------------------------------------------------|  
|-------------------------------------------------|  
|-2-----2-----2-----2---2-4-----4-----5-----5-----|  
|-2-----2-----2-----2---2-4-----4-----5-----5-----|  
|-0-----0-----0-----0---0-2-----2-----3-----3-----|  
|-------------------------------------------------|

 G1
|12----12----12----12----12\----------------------| 
|14----14----14----14----14\----------------------|  
|-------------------------------------------------|   
|-------------------------------------------------|   
|-------------------------------------------------|              
|-------------------------------------------------|                    
|                                                     
|G2                                                   
|-------------------------------------------------|   
|-------------------------------------------------|   
|-6-----6-----6-----6-----6\----------------------|   
|-6-----6-----6-----6-----6\----------------------|
|-4-----4-----4-----4-----4\----------------------|
|-------------------------------------------------| 


Lyrics:

It was late last night before she hit me up,
And baby, dont you know nothing good happens after midnight?
you see the night before i couldn't keep my hands off her,
yeah i wanted to drink her up.
Her body burned like a fire and i knew, i knew i couldnt take anymore from her.

Ah, ah, ah, ah

I'm  burn burn burning,
my stomachs turning,
my hearts giving into my eyes.
I'm stare stare staring
at the skin she's sharing,
my hearts giving into my eyes.
now its too late, for me its too late,
I'm burn burn burning, yeah my hearts giving into my eyes.

she stood 5'4
she had the brightest green id ever seen, ive never seen these eyes before.
and just like that I was hypnotized.
I sit back, I roll fat, thinking of you
and I knew I couldnt take anymore from her.

Ah, ah, ah, ah

I'm burn burn burning,
my stomachs turning,
my hearts giving into my eyes.
I'm stare stare staring
at the skin shes sharing,
my hearts giving into my eyes.
now it's too late, for me it's too late,
I'm burn burn burning, yeah my hearts giving into my eyes.

I'm  sweatin bullets like a boy that has just been caught,
you say your love is all i need, but I dont need alot.
You say youre sorry but i know that you're not (x2)

I'm burn burn burning,
my stomachs turning,
my hearts giving into my eyes.
Im stare stare staring
at the skin shes sharing,
my hearts giving into my eyes.
now its too late, for me its too late,
im burn burn burning, yeah my hearts giving into my eyes.
now its too late, for me its too late,
I'm burn burn burning, yeah my hearts giving into my eyes.

            
            
Suggest correction
Creating personal tab
Creating personal tab
You can edit any tab online and save it as your Personal.

You can edit, replace or remove any tab part or add personal notes – all changes will be seen only by you.

Personal tabs can be accessed anytime from any device, even offline.
Learn more »
comments
print report bad tab
2 comments total.
0 reply
BrilliantIrony 10 Feb 20, 2011 05:54 PM

Great Tab! I think that the lead ends on another note during the second verse. I can't seem to figure it out though.

0 reply
andyhulse923 10 Feb 07, 2016 07:33 PM

Perfect tab, can play this song perfectly with my brother now! haven't quite figured out the lead melodies, difficult when there is just one guitar, time to figure out my loop pedal!

guest
You may want to rate the tab now too:
select rating
Wanna post a correction for this tab? Suggest correction