Oops, an error
Loading. Please wait.

Cant Let Go tab

version 1
version 1

Whole song

  • It's the first tab of this song, and of course, original by me.

Interactive

352 views 18 this week
no commentswrite comment
1 2 3 4 5
3 more votes to show rating
add to favorites
×
Save as Personal and add changes to this tab that will be seen only by you. Learn more ›
×
You can save this tab as Personal to edit and correct it or add notes. All changes will be seen only by you. Learn more »
launch autoscroll
font size
0
reset
how to read this tab
guitar tuner
edit
Autoscroll
slow
fast
+/-
esc
set tempo
stop
About this tab version
It's the first tab of this song, and of course, original by me. Was this info helpful? Yes No
Can't Let Go
The Optimist(2017)
Anathema
Cover by Darth_Revan_
Use clean with chorus, or just clean with delay
and bridge pickup

e|--------------------------------------------------|
B|---------------------4-----------------------4----|
G|--1-11-1-11--1--11-1--1---1-11-1-11--1--11-1--1---| x2
D|-2-2--2-2--3--3---3----3-2-2--2-2---3--3--3----3--|
A|--------------------------------------------------|
E|--------------------------------------------------|

e|------------------------------------------------|
B|-------------------4----------------------------|
G|--1-11-1-11-1-11-1--1---6-66-6-66-/4-44-44-4----|
D|-2-2--2-2--3-3--3----3\8-8--8-8--/6-6--6--6-----|
A|------------------------------------------------|
E|------------------------------------------------|

I)
e|------------------------------------------------|
B|------------------------------------------------|
G|-\33---1-11-1-11--3-33-0-00-1-11-1-11--8-88-----|
D|----4/2-2--2-2--/4-4--1-1--2-2--2-2--\9-9-------|
A|------------------------------------------------|
E|------------------------------------------------|

II)
e|-------------------------------------------------|
B|-------------------------------------------------|
G|/3-3-33-1-11-1-11--3-33--8-88--1-11-1-11--3-33---|
D|--4-4--2-2--2-2--/4-4--/9-9--\2-2--2-2--/4-4-----|
A|-------------------------------------------------|
E|-------------------------------------------------|

After this, just repeat again
e|---------|
B|---------|
G|--0-00---|
D|-1-1-----|
A|---------|
E|---------|

And now the solo part(Repeat 2 times):
For solo,danny uses a loop with 3 or 4 guitars
the most important is this, you can improve too
as you wish.use a light ovedrive with a few delay

Guitar 1 (Lead)
e|-------------------------------------------------|
B|----------------\12(V)-11(V)-/14(V) 13(V)--------|
G|--3-33-0-00-1------------------------------------|
D|-4-4--1-1----------------------------------------|
A|-------------------------------------------------|
E|-------------------------------------------------|

e|------------------|
B|-12(v)-11(v)-9(v)-|
G|------------------| (x2)
D|------------------|
A|------------------|
E|------------------|

Ooh! I can't let go,  on and on, i just can't let go
e|-----------------|
B|-9(V)-9(V)-9(v)--|
G|-----------------|
D|-----------------|
A|-----------------|
E|-----------------|

...if you are not there...
e|-------------------------------|
B|-9(v)-14(v)-12(v)-12(v)-11(v)--|
G|-------------------------------|
D|-------------------------------|
A|-------------------------------|
E|-------------------------------|

...i'm Coming down this road again...
e|----------------------|
B|-9(v)/11(v)/16(v)/9(v)|
G|----------------------|
D|----------------------|
A|----------------------|
E|----------------------|

...If you i love...
e|-----------------------|
B|-9(v)/16(v)/14(v)/9(v)-|
G|-----------------------|
D|-----------------------|
A|-----------------------|
E|-----------------------|

...Then where are you?...
e|-----------------------
B|-9(v)/11(v)/16(v)/9(v)-
G|-----------------------|
D|-----------------------|
A|-----------------------|
E|-----------------------|

.I'm coming down down again...
e|----------------------|
B|-9(v)/14(v)/11(v)/9(v)|
G|----------------------|
D|----------------------|
A|----------------------|
E|----------------------|

Guitar 2 (rythm) Repeat this part 2 times
e|-------------------------------------------------|
B|-------------------------------------------------|
G|--3-33-0-00-/4-44--4-44--4-44--4-44--4-44--4-44--| (repeat this little section like 4 times)
D|-4-4--1-1--------66-6--66-6--66-6--66-6--66-6----|
A|-------------------------------------------------|
E|-------------------------------------------------|

e|-----------------------------------------------|
B|-----------------------------------------------|
G|--3-33--3-33--3-33--6-66--6-66--5-55--5-55--5--|
D|/4-4--44-4--44-4--/8-8--88-8--/6-6--66-6--66---|
A|-----------------------------------------------|
E|-----------------------------------------------|

e|-----------------------------------------------|
B|-----------------------------------------------|
G|-4-44--4-44-3-33--3-33--1-11--1-11--1...-------|(X4)
D|6-6--66-6--4-4--44-4--/2-2--22-2--22-...-------|
A|-----------------------------------------------|
E|-----------------------------------------------|

And then, we're going back to the main riff with this little variation
e|-----------------------------------------------|
B|------------------4----------------------------|
G|-1-11-1-11-1-11-1--1---6-66-6-66--4-44-4-44----|
D|2-2--2-2--3-3--3----3/8-8--8-8--/6-6--6-6--/---|
A|-----------------------------------------------|
E|-----------------------------------------------|

e|-----------------------------------------------|
B|-----------------------------------------------|
G|--3-33-3-33-33-33-33-3-33/-1-11-1...-----------|
D|/4-4--4-4--4--4--4--4-----2-2--2-...-----------|
A|-----------------------------------------------|
E|-----------------------------------------------|

And thats all, just get back to signaled I and II sections and song ends with
e|-------------|
B|-------------|
G|--1-11-1-----|
D|-2-2---2-----|
A|-------------|
E|-------------|

At least for live version, the song is pretty easy and intuitive,just pay attention

************************************

| /  Slide up
| \  Slide down

************************************

            
            
Suggest correction
Creating personal tab
Creating personal tab
You can edit any tab online and save it as your Personal.

You can edit, replace or remove any tab part or add personal notes – all changes will be seen only by you.

Personal tabs can be accessed anytime from any device, even offline.
Learn more »
Give kudos to tab author, rate the tab!
1 2 3 4 5
comments
print report bad tab
guest
You may want to rate the tab now too:
select rating
Wanna post a correction for this tab? Suggest correction