Oops, an error
Loading. Please wait.

Blame Me Blame Me intro tab

version 1
version 1

Intro

Whole song

665 views 1 this week
2 commentsread comments
1 2 3 4 5
1 last vote to show rating
add to favorites
×
Save as Personal and add changes to this tab that will be seen only by you. Learn more ›
×
You can save this tab as Personal to edit and correct it or add notes. All changes will be seen only by you. Learn more »
launch autoscroll
font size
0
reset
how to read this tab
guitar tuner
edit
Autoscroll
slow
fast
+/-
esc
set tempo
stop
Band:Anberlin
Song:Blame Me! Blame Me!
Album:New Surrender


 Guitar 1
e[--14--------------14------------------14--------------14----------------]
B[-----15--17--12------15--17--12----------15--17--12------15--17--12--15-]
G[---------------------------------14-------------------------------------]
D[------------------------------------------------------------------------]
A[------------------------------------------------------------------------]
E[------------------------------------------------------------------------]

 Guitar 2
e[-------------------------------------------------------------------------]
B[-------------------------------------------------------------------------]
G[-------------------------------------------------------------------------]
D[--999-999-999-777--999-999-999-121212--555-555-555-444--555-555-555-777--]
A[--999-999-999-777--999-999-999-121212--555-555-555-444--555-555-555-777--]
E[--777-777-777-555--777-777-777-101010--333-333-333-222--333-333-333-555--]


            
            
Suggest correction
Creating personal tab
Creating personal tab
You can edit any tab online and save it as your Personal.

You can edit, replace or remove any tab part or add personal notes – all changes will be seen only by you.

Personal tabs can be accessed anytime from any device, even offline.
Learn more »
Give kudos to tab author, rate the tab!
1 2 3 4 5
comments
print report bad tab
2 comments total.
0 reply
kmilongo 1,014 Feb 25, 2010 12:15 PM

I'm sure the intro is all about harmonics.

0 reply
KMBroom 272 Mar 13, 2010 11:46 PM

Nah, its not harmonics kmilongo, just about tone :) nice job on the intro here, but the lead part is a little off.. its half a step lower than the second guitar part and the b string is half a step lower than that... (i hope that makes sense lol)

e|-16----14------16----14-------|
b|----17----14------17----14-12-|

e|-16----14------16----14-------|
b|----17----14------17----14-17-|

guest
You may want to rate the tab now too:
select rating
Wanna post a correction for this tab? Suggest correction