Oops, an error
Loading. Please wait.

Downtown Song intro tab

3,811 views 1 this week
2 commentsread comments
1 2 3 4 5
x 4
add to favorites
×
Save as Personal and add changes to this tab that will be seen only by you. Learn more ›
×
You can save this tab as Personal to edit and correct it or add notes. All changes will be seen only by you. Learn more »
launch autoscroll
font size
0
reset
how to read this tab
guitar tuner
edit
Autoscroll
slow
fast
+/-
esc
set tempo
stop
Band: Anberlin
Song: Downtown Song
Album: Lost Songs
Tabbed By: Caleb Johnson

Verse 1
e|------xxxxx------xxxxx----------------|
B|------xxxxx------xxxxx----------------|
G|-7-7--xxxxx--7-7-xxxxx----------------|  repeat 2 times
D|-7-7--xxxxx--7-7-xxxxx--999999-555555-|
A|-5-5--xxxxx--5-5-xxxxx--999999-555555-|
D|------xxxxx------xxxxx--999999-555555-|

e|------------------------------|
B|------------------------------|
G|-77777777777777---------------| repeat 2 times
D|-77777777777777-999999-555555-|
A|-55555555555555-999999-555555-|
D|----------------999999-555555-|

pre-chorus
e|------------------------------------------|
B|------------------------------------------|
G|------------------------------------------|
D|-555555555555-777777777777-555555555555-7-|
A|-555555555555-777777777777-555555555555-7-|
D|-555555555555-777777777777-555555555555-7-|

chorus
e|-------------------------------------------------------------------------|
B|-------------------------------------------------------------------------|
G|-77777777----------------------------77777777----------------------------|
D|-77777777-77777777-99999999-55555555-77777777-77777777-99999999-55555555-|
A|-55555555-77777777-99999999-55555555-55555555-77777777-99999999-55555555-|
D|----------77777777-99999999-55555555----------77777777-99999999-55555555-|

Verse 2
e|------xxxxx------xxxxx----------------|
B|------xxxxx------xxxxx----------------|
G|-7-7--xxxxx--7-7-xxxxx----------------|  repeat 2 times
D|-7-7--xxxxx--7-7-xxxxx--999999-555555-|
A|-5-5--xxxxx--5-5-xxxxx--999999-555555-|
D|------xxxxx------xxxxx--999999-555555-|

e|------------------------------|
B|------------------------------|
G|-77777777777777---------------| repeat 2 times
D|-77777777777777-999999-555555-|
A|-55555555555555-999999-555555-|
D|----------------999999-555555-|

pre-chorus
e|------------------------------------------|
B|------------------------------------------|
G|------------------------------------------|
D|-555555555555-777777777777-555555555555-7-|
A|-555555555555-777777777777-555555555555-7-|
D|-555555555555-777777777777-555555555555-7-|

then here comes the chorus again:
chorus
e|-------------------------------------------------------------------------|
B|-------------------------------------------------------------------------|
G|-77777777----------------------------77777777----------------------------|
D|-77777777-77777777-99999999-55555555-77777777-77777777-99999999-55555555-|
A|-55555555-77777777-99999999-55555555-55555555-77777777-99999999-55555555-|
D|----------77777777-99999999-55555555----------77777777-99999999-55555555-|



This is all I've got so feel free to make improvements on it.

            
            
Suggest correction
Creating personal tab
Creating personal tab
You can edit any tab online and save it as your Personal.

You can edit, replace or remove any tab part or add personal notes – all changes will be seen only by you.

Personal tabs can be accessed anytime from any device, even offline.
Learn more »
comments
print report bad tab
2 comments total.
0 reply
jsayoc 10 Nov 03, 2009 03:54 PM

Sounds good but im having trouble matching it at the start of the bridge. Could anyone help?

0 reply
luntshunts 10 Feb 01, 2017 01:26 PM

My version of the bridge. Figure out the strumming yourself or make your own.

e|--------------------------|
B|--------------------------|
G|-------------------------7|
D|-5--7--9--0--5--7--0--5--7|
A|-5--7--9--0--5--7--0--5--5|
D|-5--7--9--0--5--7--0--5---|

guest
You may want to rate the tab now too:
select rating
Wanna post a correction for this tab? Suggest correction